PrimaNota.ru - самый крупный в мире бесплатный архив песенных текстов, аккордов, табулатур и нот


Fakear - La Lune Rousse - таба, видео

Регистрация Запомнить меня
Войти через:  Facebook Google Twitter Vk Yandex Mail.ru

Fakear - La Lune Rousse - таба, видео

Печатать
Просмотров: 192
___________________________                           _________________________
                             La Lune Rousse - Fakear
___________________________  '''''''''''''''''''''''  _________________________
Tabbed by W&sh.


Standard Tuning

e|---0--0------0--0----0----|---0--0------0--0----0-----|
B|----------0---------------|----------0----------------|
G|---2----2----2-----2------|---------------------------|
D|--------------------------|---3----3----3-----3-------|
A|--------------------------|---------------------------|
E|--------------------------|---------------------------|

e|---0--0------0--0----0----|---0--0------0--0----0-----|
B|----------0---------------|----------0----------------|
G|--------------------------|---------------------------|
D|--------------------------|---0----0----0-----0-------|
A|---3----3----3-----3------|---------------------------|
E|--------------------------|---------------------------|

e|---0--0------0--0----0----|---0--0------0--0----0-----|
B|----------0---------------|-----------0---------------|
G|--------------------------|---------------------------|
D|--------------------------|---3----3----3-----3-------|
A|---3----3----3-----3------|---------------------------|
E|--------------------------|---------------------------|

e|---0--0------0--0----0----|---0--0------0--0----0-----|
B|----------0---------------|----------0----------------|
G|--------------------------|---------------------------|
D|---2----2----2-----2------|---2----2----2----2--------|
A|--------------------------|---------------------------|
E|--------------------------|---------------------------|
Добавлено: 03.01.2016
Другие материалы по этой песне:
  • Аккорды и текст

Страница создана 03.01.2016
http://primanota.ru/fakear/la-lune-rousse-chords.htm
Привет, Гость.
Предлагаем пройти революционный курс по гитаре.
Подарок от PrimaNota.Ru, забирай!