PrimaNota.ru - самый крупный в мире бесплатный архив песенных текстов, аккордов, табулатур и нот


Fake - Snow - таба, видео

Регистрация Запомнить меня
Войти через:  Facebook Google Twitter Vk Yandex Mail.ru

Fake - Snow - таба, видео

Печатать
Просмотров: 128
Уроки эстрадного вокала в Санкт-Петербурге



Date: Sun, 25 Sep 2005 10:14:09 -0400
From: Ian Marquis 
Subject: f/fake/snow.tab


			                     Snow
				                by Fake
                     
                     From the album Breathe In (2002)
				
			            Tablature by Ian Marquis
			           ian.marquis@umit.maine.edu

This song is just amazing...and it's not difficult to play at all.

Tuning: Drop C# (Db Ab Db Gb Bb eb)

Intro:
(this guitar comes in after close to 30 seconds of piano/bass during which no
guitar is played).

|------------------------------|
|--3-6----2-6------2--------3--|
|----------------3--------3----|
|-----------------------5------|
|------------------------------|
|------------------------------|

If you can't perform the reach from 2 to 6 that low on the fretboard, play this
instead...same thing, just up higher and easier to finger:

|---------------------------------|
|---------------------------------|
|----10------10----------------7--|
|--8-------7---------7-------8----|
|------------------8------10------|
|---------------------------------|

Also, a guitar comes in that plays something like this in the background (until
the chorus kicks in):

|--------------------|
|--------------------|
|--7-7--XX--7-7--XX--|
|--7-7--XX--7-7--XX--|
|--5-5--XX--5-5--XX--|
|--------------------|

Chorus:
(strum each of these chords until the next one...just listen for the timing).

|----------------------------------------|
|----------------------------------------|
|--3--------------5----------------------|
|--3----3----1----5----5----3----1----3--|
|--1----3----1----3----5----3----1----3--|
|-------3----1---------5----3----1----3--|

Fill:
(this tiny little riff comes in just before the next verse begins).

|--------------------|
|--------------------|
|-------3------------|
|--5-------3-3-------|
|-----------------3--|
|--------------------|

And the rest of the song just uses the same material I've already tabbed out.
It's not difficult at all to figure out what goes where.

And yes, I realize this tab is not completely accurate...but it's a start.


Добавлено: 15.10.2013
Вам также может быть интересно:
Другие материалы по этой песне:
  • Аккорды и текст

Страница создана 15.10.2013
http://primanota.ru/fake/snow-chords.htm
Привет, Гость.
Предлагаем пройти революционный курс по гитаре.
Подарок от PrimaNota.Ru, забирай!