PrimaNota.ru - самый крупный в мире бесплатный архив песенных текстов, аккордов, табулатур и нот


Fake - Pulse - таба, видео

Регистрация Запомнить меня
Войти через:  Facebook Google Twitter Vk Yandex Mail.ru

Fake - Pulse - таба, видео

Печатать
Просмотров: 115
Уроки эстрадного вокала в Санкт-Петербурге



Date: Mon, 05 Sep 2005 22:11:36 -0400
From: Ian Marquis 
Subject: f/fake/pulse.tab

			   Pulse (English Version)
				  by Fake
                     
                     From the album Made With Air (2005)
				
			   Tablature by Ian Marquis
			  ian.marquis@umit.maine.edu

A good (and simple) song with a cool video.  This is mostly from memory, but
here goes:

Tuning: Drop C# (Db Ab Db Gb Bb eb)

Verse:

|------------|             |-------------|
|------------|             |-------------|
|---------4--| (3x, then)  |-------------| (2x)
|--4-4----4--|             |--2-2///--| (fast slide up and down)
|--4-4----2--|             |--2-2///--|
|--4-4-------|             |--2-2///--|

Also, another guitar sometimes plays this in the background:

|--------------------|        |--------------------|
|--------------------|        |--------------------|
|--------------------| (or)   |--------------------|
|--4-4--X-4-X-4-X-X--|        |--4-4--X-XX-XX-XXX--|
|--4-4--X-4-X-4-X-X--|        |--4-4--X-XX-XX-XXX--|
|--4-4--X-4-X-4-X-X--|        |--4-4--X-XX-XX-XXX--|

Chorus (Just stay the way that you are):

|-----------------------------------------------|
|-----------------------------------------------|
|-------------------------2----------4----------| (2x)
|--4----------2-----------2-(strum)--4-(strum)--|
|--4-(strum)--2--(strum)--0----------2----------|
|--4----------2---------------------------------|

Breakdown:

|-----------------------------------| |----------------------------------|
|-----------------------------------| |----------------------------------|
|-----------------------------------| |----------------------------------| (2x)
|--4-4--X-4-4--4-4--X-4-4--X-XX-XX--| |--4-4--X-4-4--4-4--X-4-4--///--|
|--4-4--X-4-4--4-4--X-4-4--X-XX-XX--| |--4-4--X-4-4--4-4--X-4-4--///--|
|--4-4--X-4-4--4-4--X-4-4--X-XX-XX--| |--4-4--X-4-4--4-4--X-4-4--///--|

The last time on the breakdown, replace the slide with:

|-------|
|-------|
|-------|
|----|
|----|
|----|

Then:

|--------------------------|
|--------------------------|
|--------------2-4---------| (2x)
|--4-2---------2-4-(hold)--|
|--4-2-(hold)--0-2---------|
|--4-2---------------------|

Ken sings Tell me something...that'll color me gold, gold... once, then:

|---------------------------------------|
|---------------------------------------|
|--------------------22222222-44444444--| (2x)
|--44444444-22222222-22222222-44444444--|
|--44444444-22222222-00000000-22222222--|
|--44444444-22222222--------------------|
   pm.................................

Then (after and color me gold, color me gold, color me gold...):

|----------------------|
|----------------------|
|--2---------4---------| (2x)
|--2-(hold)--4-(hold)--|
|--0---------2---------|
|----------------------|

And the rest just uses the stuff from above over again.  Enjoy.

Feel free to use this tab however you like...just give me credit.  Thanks.


Добавлено: 23.09.2013
Другие материалы по этой песне:
  • Аккорды и текст

Страница создана 23.09.2013
http://primanota.ru/fake/pulse-chords.htm
Привет, Гость.
Предлагаем пройти революционный курс по гитаре.
Подарок от PrimaNota.Ru, забирай!