PrimaNota.ru - самый крупный в мире бесплатный архив песенных текстов, аккордов, табулатур и нот


Fake - Lemontune - таба, видео

Регистрация Запомнить меня
Войти через:  Facebook Google Twitter Vk Yandex Mail.ru

Fake - Lemontune - таба, видео

Печатать
Просмотров: 93
Уроки эстрадного вокала в Санкт-Петербурге



Date: Wed, 28 Sep 2005 13:08:58 -0400
From: Ian Marquis 
Subject: f/fake/lemontune.tab

			                    Lemontune
				                 by Fake
                     
                     From the album Breathe In (2002)
				
			              Tablature by Ian Marquis
			            ian.marquis@umit.maine.edu

This song is catchier than the gypsy flu.  Here goes (all riffs tabbed in order
of appearence...you'll figure it out.  Listen to the song for timing.):

Tuning: Drop C# (Db Ab Db Gb Bb eb)

Riff 1 (strummed):

|---------------------------------------------|
|---------------------------------------------|
|-------7----2----6---------7----2----6----2--|
|--4----7----2----6----4----7----2----6----2--|
|--4----5----0----4----4----5----0----4----0--|
|--4-------------------4----------------------|

Riff 2 (I guess this is the 'verse'):

|-----------------------------|
|--7-7-7-6-6-6-7-7-7-6-6-6-7--|
|-----------------------------|
|-----------------------------|
|-----------------------------|
|-----------------------------|

Riff 3 (Breakdown, of sorts):

|------------------------------|
|------------------------------|
|------------------------------|
|--5/74-4/5--5/74-4/5--XXXX--|
|--5/74-4/5--5/74-4/5--XXXX--|
|--5/74-4/5--5/74-4/5--XXXX--|

Riff 4 (Lead-in to chorus...strummed):

|----------------------------------------|
|----------------------------------------|
|--7----5----7---------7----5----7----2--|
|--7----5----7----3----7----5----7----2--|
|--5----3----5----3----5----3----5----0--|
|-----------------3----------------------|

Riff 5 (Chorus Part 1...strummed):

|--------------------|---------------|
|--------------------|---------------|
|--2----6---------7--|--2----6----2--| (repeat the 1st part 3x,
|--2----6----4----7--|--2----6----2--|  end on the last part)
|--0----4----4----5--|--0----4----0--|
|------------4-------|---------------|

Riff 6 (Chorus Part 2):

|-----------------------------------|
|----------X-2-X-2-X---------3-X-3--|
|--X-2-X-2-X-1-X-1-X---X---X-2-X-2--|
|--X-2-X-2-X---X---X-4-X-4-X---X----|
|--X-0-X-0-----------4-X-4-X--------|
|-----------------------------------|

Riff 7 (Outro...strummed):

|-----------------------|
|-----------------------|
|--2----6---------7--9--|
|--2----6----4----7--9--|
|--0----4----4----5--7--|
|------------4----------|

Riff 8 (Clean outro):

|----7----9----7--5--7--|----5---5---5---5------5------7----|
|--5----5----5----------|--5---5---5---5------5---5--5---5--|
|-----------------------|-----------------------------------|
|-----------------------|-----------------------------------|
|-----------------------|-----------------------------------|
|-----------------------|-----------------------------------|

Riff 9 (last note):

|-----|
|-----|
|--2--|
|--2--|
|--0--|
|-----|


Order of parts:

Riff 1 (1x)
Riff 2 (10x)
Riff 3 (4x)
Riff 2 (8x)
Riff 3 (4x)
Riff 4 (1x)
Riff 5 (1st part 3x, end 1x)
Riff 6 (4x, over Riff 5, 1st part)
Riff 2 (2x)
Riff 3 (8x)
Riff 4 (1x)
Riff 5 (1st part 3x, end 1x)
Riff 6 (4x, over Riff 5, 1st part)
Riff 7 (6x, modified Riff 6 played over)
Riff 8 (2x, over Riff 7)
Riff 9 (1x)

And that's it.  Granted, it's not perfect, but this is definitely a start.


Добавлено: 05.10.2013
Другие материалы по этой песне:
  • Аккорды и текст

Страница создана 05.10.2013
http://primanota.ru/fake/lemontune-chords.htm
Привет, Гость.
Предлагаем пройти революционный курс по гитаре.
Подарок от PrimaNota.Ru, забирай!