PrimaNota.ru - самый крупный в мире бесплатный архив песенных текстов, аккордов, табулатур и нот


Fake - Just Like Billy - таба, видео

Регистрация Запомнить меня
Войти через:  Facebook Google Twitter Vk Yandex Mail.ru

Fake - Just Like Billy - таба, видео

Печатать
Просмотров: 103
			      "Just Like Billy"
				  by Fake?
				
			   Tablature by Ian Marquis
			  ian.marquis@umit.maine.edu

This tablature isn't complete, but it's just my first draft anyway.  I found 
the video for the song a while ago on "Happy Fun Time" (a rotation site).  
It's a good song, so I figured I'd tab out the parts I could figure out.

Tuning: Drop D, half-step down (Db Ab Db Gb Bb eb)

Riff 1 (dirty):
|--------------------------|      |--------------------------| 
|--------------------------|      |--------------------------| 
|-------------------2-2-2--|      |--------------------------| 
|-------------------2-2-2--| (or) |-------------------7-7-7--| 
|-------------------0-0-0--|      |-------------------7-7-7--| 
|--3-2-1-3-2-1-3-2--X-X-X--|      |--3-2-1-3-2-1-3-2--7-7-7--| 

Fill 1 (clean + chorus + delay):
|--12----------15--------------|
|------15--13------12--12--13--|
|------------------------------|
|------------------------------|
|------------------------------|
|------------------------------|

Riff 2 (dirty):
|-----------------------------|      |------------------------------|
|-----------------------------|      |------------------------------|
|--2-2-2--5-------------------|      |------------------------------|
|--2-2-2--5-------------------| (or) |--7-7-7--10-------------------|
|--0-0-0--3-------------------|      |--7-7-7--10-------------------|
|--X-X-X-----3-2-2-3-2-2-3-2--|      |--7-7-7--10--3-2-2-3-2-2-3-2--|

Riff 3 (dirty)
|---------------------------------------|
|---------------------------------------|
|---------------------------------------|
|--1----------3----------/5-------------|
|--1-(strum)--3-(strum)--/5-(fade out)--|
|--1----------3----------/5-------------|

Fill 2 (moderately dirty):
|-------------------------------------------------------------|
|-------------------------------------------------------------|
|---/14----------14/12----------12/11----------11/12----------|
|-------(strum)--------(strum)--------(strum)--------(strum)--|
|---/12----------12/10----------10/9-----------9/-10----------|
|-------------------------------------------------------------|

Riff 4 (dirty)
|-----------------------------------|
|-----------------------------------|
|-----------------------------------|
|--3----------5---------------------|
|--3-(strum)--5-(strum)-(fade out)--|
|--3----------5---------------------|

I'm drawing a blank for the verses at the moment, but maybe I'll come back and 
fill them in later.  Or, someone else can have a go at it.  Either way, I'm 
leaving them out for now, rather than put in some bogus filler that doesn't 
sound right to begin with.

Order of parts:

Riff 1 2X (Fill 1 comes in on 2nd time, plays all through the intro)
Riff 2 4X
Riff 3 1X
Verse
Fill 2 plays 2X around 1:05
Riff 2 4X
Riff 4 1x
Verse

And so on.  You can figure the rest out. 

Again, I can't guarantee that this is spot-on...but it's at least a starting point, 
which is better than the nothing that exists for this song at the moment.  
Actually, at this point, I'm wondering if anyone else has even HEARD this song.
     
Добавлено: 14.11.2013
Другие материалы по этой песне:
  • Аккорды и текст

Страница создана 14.11.2013
http://primanota.ru/fake/just-like-billy-chords.htm
Привет, Гость.
Предлагаем пройти революционный курс по гитаре.
Подарок от PrimaNota.Ru, забирай!