PrimaNota.ru - самый крупный в мире бесплатный архив песенных текстов, аккордов, табулатур и нот


Fake - Into everything - таба, видео

Регистрация Запомнить меня
Войти через:  Facebook Google Twitter Vk Yandex Mail.ru

Fake - Into everything - таба, видео

Печатать
Просмотров: 176
Уроки эстрадного вокала в Санкт-Петербурге



Date: Sun, 25 Sep 2005 01:00:11 -0400
From: Ian Marquis 
Subject: f/fake/into_everything.tab

			                 Into Everything
				                 by Fake
                      
                     From the album Breathe In (2002)
				
			             Tablature by Ian Marquis
			            ian.marquis@umit.maine.edu

One of the best songs (in my opinion) from their first album.  Here goes:

Tuning: Drop C# (Db Ab Db Gb Bb eb)

Intro:
(this part is really noisy, so you can't make the guitar out very well...I can't
guarantee the rhythm, but this is what I play...just screw around with these two
chords and you'll be fine).

|-------------------------------|
|-------------------------------|
|-------------------------------|
|--2-2-X-2-2-X-2-2-X-2-2-X-3-3--| (8x...the last time, all 2's, no 3's)
|--2-2-X-2-2-X-2-2-X-2-2-X-3-3--|
|--2-2-X-2-2-X-2-2-X-2-2-X-3-3--|

Theme:
(those are natural harmonics...but you can play a scrape anywhere on the neck if
you don't want to bother with them).

|------------------------------------|
|------------------------------------|
|------------------------------------|
|------------------------| (again, 8x)
|------------------------|
|--5h2-22-2--5h2-22-2----|

Verse:
(this is a really easy verse...just listen to the song for rhythm...and notice
the empty spaces during the second portion of the verse).

|------------------------------------------|
|------------------------------------------|
|------------------------------------------|
|--2-2----2-2----XX-2-2----XX-2-2----X-xX--| (1x, then...)
|--2-2----2-2----XX-2-2----XX-2-2----X-xX--|
|--2-2----2-2----XX-2-2----XX-2-2----X-xX--|

|------------------------------------------|
|------------------------------------------|
|------------------------------------------|
|--2-2--------------2-2--------------------|
|--2-2--------------2-2--------------------|
|--2-2--------------2-2--------------------|

Then, you play the theme again.  You know how it goes by now...8x...then it's:

Chorus:
(just strum each of these chords once...nothing fancy or anything...listen to
the song for timing).

|---------------------------|
|---------------------------|
|-----------------5----55---|
|--2----5----0----5----550--| (2x)
|--2----5----0----3----330--|
|--2----5----0-----------0--|

Breakdown:
(when Ken sings my lucky life...nothing fancy here either...the first part
is just a noise-slide that leads into the segment...repeat the rest of it 4x).

|--------|------------------------|
|--------|------------------------|
|--------|---------5--------------|
|--X--|--2-2--X-5----55554444--| (4x)
|--X--|--2-2--X-3----55554444--|
|--X--|--2-2--X------55554444--|

And the rest of the song just repeats things already tabbed out above.  Give it
a listen and figure it out.  There are little variations in the way Inoran plays
things, but figuring those out is all part of the fun of learning a new song.

Email me if you have any requests/suggestions.


Добавлено: 04.01.2014
Другие материалы по этой песне:
  • Аккорды и текст

Страница создана 04.01.2014
http://primanota.ru/fake/into-everything-chords.htm
Привет, Гость.
Предлагаем пройти революционный курс по гитаре.
Подарок от PrimaNota.Ru, забирай!