PrimaNota.ru - самый крупный в мире бесплатный архив песенных текстов, аккордов, табулатур и нот


Fake - Game - таба, видео

Регистрация Запомнить меня
Войти через:  Facebook Google Twitter Vk Yandex Mail.ru

Fake - Game - таба, видео

Печатать
Просмотров: 113



Date: Wed, 28 Sep 2005 14:01:54 -0400
From: Ian Marquis 
Subject: f/fake/game.tab

			                      Game
				                 by Fake
                     
                     From the album Breathe In (2002)
				
			             Tablature by Ian Marquis
			            ian.marquis@umit.maine.edu

The final song on Breathe In.  It's nice and slow and a good album-ender.
Having said that, here goes:

Tuning: Half Step Down (Eb Ab Db Gb Bb eb)

Riff 1 (Intro / Verse):

|-----------------------------------------------------------|
|----------3-------------3-------------3-------------3------|
|------0-----0-------0-----0-------0-----0-------0-----0----|
|----0---0-----0---0---0-----0---2---2-----2---2---2-----2--|
|----2-------------2-----------3-------------3--------------|
|--3-------------3------------------------------------------|

Riff 2 (Chorus...strummed):

|--3----2----3----3--|--3----2----3--------3----3--|--3----3----3--|
|--3----3----3----3--|--3----3----3--------3----3--|--3----3----3--|
|--0----2----0----2--|--0----2----0--------2----0--|--0----2----0--|
|--2----0----2----2--|--2----0----2--------2----2--|--0----2----2--|
|--3----0----2----0--|--3----0----2--------0----3--|--2----0----3--|
|--X----X----0----X--|--X----X----0--------X----X--|--3----X----X--|

And believe it or not, that's all there is to this song.  Vary the strumming
a little throughout to make it interesting, but that's the only thing you
really need to do.  Piece of cake.


Добавлено: 26.02.2014
Другие материалы по этой песне:

Страница создана 05.06.2012
http://primanota.ru/fake/game-chords.htm
Привет, Гость.
Предлагаем пройти революционный курс по гитаре.
Подарок от PrimaNota.Ru, забирай!