PrimaNota.ru - самый крупный в мире бесплатный архив песенных текстов, аккордов, табулатур и нот


Faithless - Insomnia - текст песни, таба, видео

Регистрация Запомнить меня
Войти через:  Facebook Google Twitter Vk Yandex Mail.ru

Faithless - Insomnia - текст песни, таба, видео

Печатать
Просмотров: 1070
Уроки эстрадного вокала в Санкт-Петербурге
Авторы музыки: Rollo, Sister Bliss, Maxi Jazz

-------------------------------------------------------------------------------
                             ISNOMNIA - Faithless
-------------------------------------------------------------------------------
Tabbed by: sherloc
Email: n/a

Tuning: Standard


e|-----------------------------------------------------------------------------|
B|--------------6-6-6----------------------------------------------------------|
G|---9-9-7-7-7--------7-7-7-6-7------------------------------------------------| X2
D|-----------------------------------------------------------------------------|
A|-----------------------------------------------------------------------------|
E|-----------------------------------------------------------------------------|

e|---------------------------------------------------------------------------|
B|-------7-7-7---------------------------------------------------------------|
G|---9-9-------6-6-6--7-7-7-6-7----------------------------------------------|
D|---------------------------------------------------------------------------|
A|---------------------------------------------------------------------------|
E|---------------------------------------------------------------------------|

So there you go.
Добавлено: 05.07.2012
Другие материалы по этой песне:

Страница создана 07.03.2012
http://primanota.ru/faithless/insomnia-chords.htm
Привет, Гость.
Предлагаем пройти революционный курс по гитаре.
Подарок от PrimaNota.Ru, забирай!