PrimaNota.ru - самый крупный в мире бесплатный архив песенных текстов, аккордов, табулатур и нот


Faithless - Drifting Away - аккорды и текст, таба, видео

Регистрация Запомнить меня
Войти через:  Facebook Google Twitter Vk Yandex Mail.ru

Faithless - Drifting Away - аккорды и текст, таба, видео

Печатать
Просмотров: 360
Авторы музыки: Rollo, Sister Bliss

Drifting Away
Faithless
Я 'то произведение искусства подбирал на гитаре. По правде оно в песне звучит на пианино, 
но нет же у меня пианино. А в ноты неохота переводить так как я их ещё плохо помню :(   
(У кого есть лишнее пианино я его охотно заберу себе. Пишите на arsatver@pisem.net) 

e|---5-3-5---5---5---5-3-5-6-3---5--------|
b|-3-------6---5---3-----------6----------|

e|---5-3-5---5---5---5-3-5-6-3---5--------|
b|-3-------6---5---3-----------6---3------|

e|-10-8-10-6-10----10---10---10---10------|
b|--------------10----8----7----8----3----|

e|-10-8-10-6-10---10-13-12-10-8-6-5-3-----|
b|--------------8---------------------6-3-|

Добавлено: 31.12.2013
Другие материалы по этой песне:

Страница создана 12.03.2012
http://primanota.ru/faithless/drifting-away-chords.htm
Привет, Гость.
Предлагаем пройти революционный курс по гитаре.
Подарок от PrimaNota.Ru, забирай!