PrimaNota.ru - самый крупный в мире бесплатный архив песенных текстов, аккордов, табулатур и нот


Faith No More - War Pigs Live - таба, видео

Регистрация Запомнить меня
Войти через:  Facebook Google Twitter Vk Yandex Mail.ru

Faith No More - War Pigs Live - таба, видео

Печатать
Просмотров: 105

e-------------------------------------------------|
B-------------------------------------------------|
G-------------------------------------------------| X2
D--------------------------------2p0-----------X--|
A--------5/7---7/5~~--X----------------5/7~~--X---|
E-0----------X-------X-X-0-----------X-------X----|
                            w^ w^ w^ w^ wv wv w^
e-------------------------------------------------|
B-------------------------------------------------|
G-------------------------------------------------|
D-------------------------------------------------|
A-------5/7~~~~~~~~~~~~---------------------------|
E-0---------------------0-------------------------|

e-------------------------------------------------|
B-------------------------------------------------|
G-------------------------------------------------| X2
D--------------------------------2p0-----------X--|
A--------5/7---7/5~~--X----------------5/7~~--X---|
E-0----------X-------X-X-0-----------X-------X----|
  w^v^v^
e---------------------------------------------------|
B---------------------------------------------------|
G---------------------------------------------------|
D-------7-9------------7-9------------7-9-----------|
A-------5-7------------5-7------------5-7-----------|
E-0-------------------------------------------------|

Verse
e-----------------------------------------------|
B-----------------------------------------------|
G-----------------------------------------------|
D-7-9------------7-9------------7-9-------------|
A-5-7------------5-7------------5-7-------------|
E-----------------------------------------------|
                                        tr:-----
e-----------------------------------------------------|
B-----------------------------------------------------|
G-----------------4p2p0-------------------------------|
D-7-9------------------2p0-7-9-------------0----2-7-9-|
A-5-7----------------------5-7--------------------5-7-|
E-----------------------------------------------------|

e----------------------------------------------|
B-----------------------------------------8^~~-|
G---------------------------12-11--10---9------|
D-7-9-------------7-9-------12-11--10---9------|
A-5-7-------------5-7-------10--9---8---7------|
E----------------------------------------------|
                       tr:--
e-----------------------------|
B-----------------------------|
G----------12-11--10---9-7--9-|
D-7-9------12-11--10---9------|
A-5-7------10--9---8---7------|
E-----------------------------|

e-----------------------------|
B------------------------8^~~-|
G----------12-11--10---9------|
D-7-9------12-11--10---9------|
A-5-7------10--9---8---7------|
E-----------------------------|

e-------------------------|
B-------------------------|
G----------12-11--10---9--|
D-7-9------12-11--10---9--|
A-5-7------10--9---8---7--|
E-------------------------|

Interlude
e---------12/-------------|
B---------12/-------------|
G---------12/-------------|
D-------------------------|
A-------------------------|
E-0-0-0-0-----0-0-0-0-3~~-|

e---------12/------------|
B---------12/------------|
G---------12/------------| X3
D------------------------|
A------------------------|
E-X-X-X-X-----X-X--X-3~~-|

Chorus
e-------------------------|
B-------------------------|
G-------------------------| X8
D--------2p0--------2p0---|
A-------------------------|
E-X-X-X-X----X-X-X-X---3~-|

Interlude
e---------12/-------------|
B---------12/-------------|
G---------12/-------------|
D-------------------------|
A-------------------------|
E-X-X-X-X-----X-X-X-X-3~~-|

e---------12/------------|
B---------12/------------|
G---------12/------------| X2
D------------------------|
A------------------------|
E-X-X-X-X-----X-X--X-3~~-|

Chorus
e-------------------------|
B-------------------------|
G-------------------------| X8
D--------2p0--------2p0---|
A-------------------------|
E-X-X-X-X----X-X-X-X---3~-|

Pre - Solo

e------------------------------|
B-------------------------8^~~-|
G-----------12-11--10---9------|
D-7-9-------12-11--10---9------|
A-5-7-------10--9---8---7------|
E------------------------------|
                       tr:--
e-----------------------------|
B-----------------------------|
G----------12-11--10---9-7--9-|
D-7-9------12-11--10---9------|
A-5-7------10--9---8---7------|
E-----------------------------|

e-----------------------------|
B------------------------8^~~-|
G----------12-11--10---9------|
D-7-9------12-11--10---9------|
A-5-7------10--9---8---7------|
E-----------------------------|

e-------------------------|
B-------------------------|
G----------12-11--10---9--|
D-7-9------12-11--10---9--|
A-5-7------10--9---8---7--|
E-------------------------|

Solo
e--------------------------------------------------|
B--------------------------------------------------|
G--------------------------------------------------|
D--------------------------------------------------|
A---------11/12---12\11---11\7---7\5---5/7--7~~~~--|
E--12\0---------0-------0------0-----0-------------|

e---------------------------------------|
B---------------------------------------|
G---------------------------------------|
D---------------------------------------|
A--(7)~~~--5/7---7\5--7--7/11---11/12---|
E--------------0--------------0-------0-|

e------------------------------------------|
B------------------------------------------|
G------------------------------------------|
D------------------------------------12h14-|
A--12\11---11/12---12/14--14~~~~12h14------|
E--------0-------0-------------------------|
                         1/4               full
e-----------------------------------------------12-|
B--------------------------------------------12----|
G---------------------12b------------12--14b-------|
D--14~~~~-------12h14----------12h14---------------|
A---------12h14-----------12h14--------------------|
E--------------------------------------------------|

e-----------12--------12------------------12--------------12--------------|
B--------12---------12-----15fb----15fb~~~----15--12--15fb------15-15p12--|
G---14fb-------14fb-------------------------------------------------------|
D-------------------------------------------------------------------------|
A-------------------------------------------------------------------------|
E-------------------------------------------------------------------------|

e-----------------------------------------------------12------15--15fb----|
B--15p12-----12---15p12----12----15p12-----12-----------15fb~~------------|
G--------14-------------14-------------14-------14fb----------------------|
D-------------------------------------------------------------------------|
A-------------------------------------------------------------------------|
E-------------------------------------------------------------------------|

e-------15fb---15fb-----15fb---(15)-12--------------------------------------|
B--------------------------------------15--12------12--15--15p12------------|
G---------------------------------------------14fb--------------15--14p12---|
D------------------------------------------------------------------------14-|
A---------------------------------------------------------------------------|
E---------------------------------------------------------------------------|

e-------------------------------------------------------------------------|
B--15p12------------------------------------------------------------------|
G--------14-14fb---(14)p12------------------------------------------------|
D----------------------------14p12---14-----------------------------------|
A---------------------------------------14----10h12-10--------------------|
E------------------------------------------------------10-12--12-12--(12--|

e---------------------------------------------------------|
B---------------------------------------------------------|
G---9fb---9fb---9fb---9fb-------(9)---7-------7--/--9~~~~-|
D-------------------------------------9-------------------|
A---------------------------------------------------------|
E---------------------------------------------------------|

e----------------------------------------------------|
B----------------------------------------------------|
G-(9)-\-7---------7-h-9~~~~~~------7--9~~~~~~-7--9---|
D----------7-h-9-------------7-h-9-------------------|
A----------------------------------------------------|
E----------------------------------------------------|

              tr:-----------            tr:---------               tr:-----------------|
e--------------------------------------------------------------------------------------|
B--------------------------------------------------------------------------------------|
G--9fb---(9)--7-----------9p7fb--------9b---------9 (7h9)-p7------9b-------9-(7h9)rp7--| X2
D--------------------------------------------------------------------------------------|
A--------------------------------------------------------------------------------------|
E--------------------------------------------------------------------------------------|

e-----------------------------------------------------------------------------|
B-----------------------------------------------------------------------------|
G-9fb---(9)----9fb---9fb---9fb---9fb--------(9)--9p7--7/9-9~~~~~~~~~~~~~(9)/--|
D-----------------------------------------------------------------------------|
A-----------------------------------------------------------------------------|
E-----------------------------------------------------------------------------|

e--------------------------------------------|
B--------------------------------------------|
G--------------------------------------------|
D--------------------------------------------|
A-11/12--12--12\11---11\7---7\5---5/7~~~~~~--|
E------------------0------0-----0------------|

e-------------------------------------------------|
B-------------------------------------------------|
G-------------------------------------------------|
D-------------------------------------------------|
A----(6)-----6^-----(6)---6^----(6)---6^~~~-(6)---|
E---------0----------0-----------0-----------0----|

e-------------------------------------------------|
B-------------------------------------------------|
G-------------------------------------------------|
D-------------------------------------------------|
A---------6^-----(6)---6^-----(6)---6^-----(6)----|
E--0---0----------0------------0------------0-----|

e----------------------------------------------------------------|
B----------------------------------------------------------------|
G---9-------9--9--9-\-7--------7--7--7-/-9------9--9--9-\-7------|
D---9-------9--9--9-\-7--------7--7--7-/-9------9--9--9-\-7--(7)-|
A---7-------7--7--7-\-5--------5--5--5-/-7------7--7--7-\-5------|
E---0--------------------------------0---------------------------|
          w^ ^ ^ v
e-----------------------|
B-----------------------|
G-----------------------|
D------------------7-9--|
A----5/7-----------5-7--|
E-0-------0-------------|

Verse
e-----------------------------------------------|
B-----------------------------------------------|
G-----------------------------------------------|
D-7-9------------7-9------------7-9-------------|
A-5-7------------5-7------------5-7-------------|
E-----------------------------------------------|
                                        tr:-----
e-----------------------------------------------------|
B-----------------------------------------------------|
G-----------------4p2p0-------------------------------|
D-7-9------------------2p0-7-9-------------0----2-7-9-|
A-5-7----------------------5-7--------------------5-7-|
E-----------------------------------------------------|

e----------------------------------------------|
B-----------------------------------------8^~~-|
G---------------------------12-11--10---9------|
D-7-9-------------7-9-------12-11--10---9------|
A-5-7-------------5-7-------10--9---8---7------|
E----------------------------------------------|

                       tr:--
e-----------------------------|
B-----------------------------|
G----------12-11--10---9-7--9-|
D-7-9------12-11--10---9------|
A-5-7------10--9---8---7------|
E-----------------------------|

e-----------------------------|
B------------------------8^~~-|
G----------12-11--10---9------|
D-7-9------12-11--10---9------|
A-5-7------10--9---8---7------|
E-----------------------------|

e-------------------------|
B-------------------------|
G----------12-11--10---9--|
D-7-9------12-11--10---9--|
A-5-7------10--9---8---7--|
E-------------------------|

Luke's Wall
e------------------------------------------------------------------|
B------------------------------------------------------------------|
G-----------7-------------7-------7------------7------------7----7-|
D-----9------------9----------9---------9------------9----9----9---|
A--7-----7------7------7-------------7--7---7-----7--7-------------|
E--------0------0------0----------------0---0-----0-----0----------|

e------------------------------------------------------------------|
B------------------------------------------------------------------|
G-9------------7------7---7---7----------------7------7--------7---|
D-9-----9------7------7---7---7--------9-------x----------9--------|
A-7-----9------5------5---5---5-----7--7---7---7---7---------------|
E-------7------------------------------0---0-----------------------|

e------------------------------------------------------------------|
B------------------------------------------------------------------|
G--9------12------9-----9---9-----------------7------------7-----7-|
D--9------12------9-----9---9-----------9------------9--------9----|
A--7------10------7-----7---7--7----7------7------7--7-------------|
E----------------------------------------------------0---0---------|

e------------------------------------------------------------------|
B------------------------------------------------------------------|
G--9-------------7-----7---7-----------------7-------------7-----7-|
D--9------7------7-----7---7----------9-------------9---------9----|
A--7------7------5-----5---5--5/6--7------7------7--7--------------|
E---------5-----------------------------------------0---0----------|

e------------------------------------------------------------------|
B------------------------------------------------------------------|
G--9----12-----9-------9---9----------------7-------------7-----7--|
D--9----12-----9-------9---9----------9------------9---------9-----|
A--7----10-----7-------7---7---7---7--7---7-----7--7----7----7-----|
E-------------------------------------0---------0--0----0----------|

e------------------------------------------------------------------|
B------------------------------------------------------------------|
G-----------7------------7------7------------7-----------7------7--|
D----9------------9---------9---------9-----------9----------9-----|
A-7--7---7------7-7----7----7------7--7----7----7-7---7------7-----|
E----0----------0-0----0--------------0---------0-0---0------------|

e------------------------------------------------------|
B------------------------------------------------------|
G--------7----------7------7---------5---------5-----5-|
D---9--------9----------9-------7--------7--------7----|
A-7-7--7---7-7---7------7-----5----5---5----5----------|
E---0------0-0---0-------------------------------------|

e------------------------------------------------------|
B------------------------------------------------------|
G--------5--------5-------5----------3---------3-----3-|
D---7--------7--------7---------5--------5--------5----|
A-5----5---5----5-------------3----3---3----3----------|
E------------------------------------------------------|

e-------------------------------------|
B-------------------------------------|
G----------3-----------3-------3------|
D---5------------5---------5----------|
A-3-----3-----3-----3-----------------|
E-------------------------------------|

e---------------------------------------------------------------|
B---------------------------------------------------------------|
G---------------------------------------------------------------|
D--4---------5-----5-----4-------------7-/-9--------4--5----4h5-|
A--2---------3-----3-----2-------------5-/-7--------------------|
E--------------------------------------0--------0---------------|

e-------------------------------------------------|
B-------------------------------------------------|
G-------------------------------------------------|
D--4~~~~~~~~-4-------------7-/-9------4----5---7--|
A---------------5--2--5----5-/-7------------------|
E--------------------------0-----0--0-------------|

e-----------------------------------------------------|
B-----------------------------------------------------|
G-----------------------------------------------------|
D-7~~~~~~~-7---4-------------7-/-9--------4--5----4h5-|
A------------------5---------5-/-7--------------------|
E----------------------7-----0--------0---------------|

e-------------------------------------------------|
B-------------------------------------------------|
G-------------------------------------------------|
D--4~~~~~~~~-4-------------7-/-9------4----5---7--|
A---------------5--2--5----5-/-7------------------|
E--------------------------0-----0--0-------------|

e-------------------------------------------------------------------------|
B-------------------------------------------------------------------------|
G---------4-4-------4/7---7h9---9~~7---9fb--9fb--9fb---(9)---7h9----------|
D-7-----------------------------------------------------------------------|
A-------------------------------------------------------------------------|
E-------------------------------------------------------------------------|
                           tr:--------        tr:------        tr:--------|
e-------------------------------------------------------------------------|
B-------------------------------------------------------------------------|
G-(9)~~~7----7--9--9fb--(9)(7h9)-p7--9fb--(9)(7h9)-p7--9fb--(9)(7h9)-p7---|
D---------9---------------------------------------------------------------|
A-------------------------------------------------------------------------|
E-------------------------------------------------------------------------|
         tr:-------       tr:-------       tr:-------       tr:-----------|
e-------------------------------------------------------------------------|
B-------------------------------------------------------------------------|
G-9b--(9)(7h9)-p7--9b--(9)(7h9)-p7--9b--(9)(7h9)-p7--9b--(9)(7h9)-p7------|
D-------------------------------------------------------------------------|
A-------------------------------------------------------------------------|
E-------------------------------------------------------------------------|

e-------------------------------------------------------------------------|
B-------------------------------------------------------------------------|
G------9fb-----9fb------9fb------9fb---------(9)---7------7---/---9~~~~---|
D------------------------------------------------------9------------------|
A-------------------------------------------------------------------------|
E-------------------------------------------------------------------------|

e--------------------------------------------------|
B--------------------------------------------------|
G-(9)--\-7-/-9~~~~~~~-------7-h9----------7-h9~~~~-|
D---------------------7-h9----------7-h9-----------|
A--------------------------------------------------|
E--------------------------------------------------|

e---------------------------------------|
B---------------------------------------|
G---(9)~~--------7h9~~~-----7h9~~~~-----|
D-----------7h9--------7h9---------9p7--|
A---------------------------------------|
E---------------------------------------|

e---------------------------------------|
B---------------------------------------|
G---(9)~~-------7h9~~~-----7h9~~~~------|
D----------7h9--------7h9----------7--9-|
A---------------------------------------|
E---------------------------------------|

e--------------------------------------------------|
B--------------------------------------------------|
G--------------------------------------------------|
D--9-p-7\-5--7--5\4--5-4h5p4---4h5p4-----4h5p4-----|
A----------------------------7--------7---------7--|
E--------------------------------------------------|

e----------------------------------------------------|
B----------------------------------------------------|
G-9fb--(9)p7-h9p7------------------------------------|
D----------------9-7--7-\5---5\4---4h5p4----4h5p--4--|
A---------------------------------7-------7----------|
E----------------------------------------------------|

e-------------------------------------------------|
B-------------------------------------------------|
G-------------------------------------------------|
D-4--5-7-----4h5p4----4h5p4---X-------------------|
A------------------7--------7----7--5-------5-----|
E-------------------------------------------------|

e-------------------------------------------------|
B-------------------------------------------------|
G-------------------------------------------------|
D----4h5p4------4h5p4-------4h5--7-----4h5p4------|
A-7-----------7-----------7-------------------7---|
E-------------------------------------------------|

e---------------------------------------------------|
B---------------------------------------------------|
G---------------------------------------------------|
D--7-/-9--------4--5----4h5---4~~~~~~~~-4-----------|
A--5-/-7-----------------------------------5--2--5--|
E--0--------0---------------------------------------|

e---------------------------------------------------|
B---------------------------------------------------|
G---------------------------------------------------|
D--7-/-9------4----5---7---7~~~~~~~-7---4-----------|
A--5-/-7------------------------------------5-------|
E--0-----0--0-----------------------------------7---|

e---------------------------------------------------|
B---------------------------------------------------|
G---------------------------------------------------|
D--7-/-9--------4--5----4h5---4~~~~~~~~-4-----------|
A--5-/-7-----------------------------------5--2--5--|
E--0--------0---------------------------------------|

e------------------------------------------------------|
B------------------------------------------------------|
G------------------------------------------------------|
D--7-/-9------4----5---7---7~~~~~~~-7---4--------------|
A--5-/-7------------------------------------5--(5)/----|
E--0-----0--0---------------------------------------0--|

e------------------------------------------------------------------|
B------------------------------------------------------------------|
G-----------7-------------7-------7------------7------------7----7-|
D-----9------------9----------9---------9------------9----9----9---|
A--7-----7------7------7-------------7--7---7-----7--7-------------|
E--------0------0------0----------------0---0-----0-----0----------|

e------------------------------------------------------------------|
B------------------------------------------------------------------|
G-----------7-------------7-------7------------7------------7----7-|
D-----9------------9----------9---------9------------9----9----9---|
A--7-----7------7------7-------------7--7---7-----7--7-------------|
E--------0------0------0----------------0---0-----0-----0----------|

e---------------|
B---------------|
G--9\-----------|
D--9\\----------|
A--7\\\---------|
E--0\\\\--------|
Добавлено: 21.05.2012
Другие материалы по этой песне:
  • Аккорды и текст

Страница создана 21.05.2012
http://primanota.ru/faith-no-more/war-pigs-live-chords.htm
Привет, Гость.
Предлагаем пройти революционный курс по гитаре.
Подарок от PrimaNota.Ru, забирай!