PrimaNota.ru - самый крупный в мире бесплатный архив песенных текстов, аккордов, табулатур и нот


Faith No More - Superhero - бас-таба, видео

Регистрация Запомнить меня
Войти через:  Facebook Google Twitter Vk Yandex Mail.ru

Faith No More - Superhero - бас-таба, видео

Печатать
Просмотров: 109
Уроки эстрадного вокала в Санкт-Петербурге
Авторы: Faith No More

--------------------------------------------------------------------------
                    SUPERHERO - Faith No More
--------------------------------------------------------------------------
Tabbed by: polaco_mp3z
E-mail: polacomp3z@gmail.com

Tuning: Standard (EADG)


Intro

G|--9-9---------9-9-----9-9-----9----7----------|
D|--9-9---------9-9-----9-9-----9----7----------|
A|--7-7---------7-7-----7-7-----7----5----------|
E|----------------------------------------------|

G|-------------|-----------------|-------------|-----------------|
D|-------------|-----------------|-------------|-----------------|
A|-------------|-----------------|-------------|-----------------|
E|--0-0-5-7-0--|--0--0--0--0--0--|--0-555-7-0--|--0--0--0--0--0--|

G|-------------|-----------------|-------------|-----------------|
D|-------------|-----------------|-------------|-----------------|
A|--------5----|-----------------|-------------|-----------------|
E|--0-557---0--|--0--0--0--0--0--|--0-555-7-0--|--0--0--0--0--0--|


Verse 1

G|-------------|-----------------|-------------|-----------------|
D|-------------|-----------------|-------------|-----------------|
A|-------------|-----------------|-------------|-----------------|
E|--0-0-5-7-0--|--0--0--0--0--0--|--0-555-7-0--|--0--0--0--0--0--|

G|-------------|-----------------|-------------|-----------------|
D|-------------|-----------------|-------------|-----------------|
A|--------5----|-----------------|-------------|-----------------|
E|--0-557---0--|--0--0--0--0--0--|--0-555-7-0--|--0--0--0--0--0--|

G|--7-7---------7-7---------7-7------|
D|--7-7---------7-7---------7-7------|
A|--5-5---------5-5---------5-5------|
E|-----------------------------------|

G|--5-7-7-4-5-5-2-4-4-1-2/1\2-2------|
D|--0-0-0-0-0-0-0-0-0-0-0---0-0------|
A|-----------------------------------|
E|-----------------------------------|


Chorus 1

G|--9-9-------9-9-------9-9-------9-9-----9----9-----|
D|--9-9-------9-9-------9-9-------9-9-----9----9-----|
A|--7-7-------7-7-------7-7-------7-7-----7----7-----|
E|---------------------------------------------------|


Verse 2

G|-------------|-----------------|-------------|-----------------|
D|-------------|-----------------|-------------|-----------------|
A|-------------|-----------------|-------------|-----------------|
E|------5-7-0--|--0--0--0--0--0--|--0-555-7-0--|--0--0--0--0--0--|

G|-------------|-----------------|-------------|-----------------|
D|-------------|-----------------|-------------|-----------------|
A|--------5----|-----------------|-------------|-----------------|
E|--0-557---0--|--0--0--0--0--0--|--0-555-7-0--|--0--0--0--0--0--|

G|---------------|
D|---------------|
A|---7-7---------|  x8
E|---0-0---0000--|

G|-------------|-----------------|-------------|-----------------|
D|-------------|-----------------|-------------|-----------------|
A|-------------|-----------------|-------------|-----------------|
E|------5-7-0--|--0--0--0--0--0--|--0-555-7-0--|--0--0--0--0--0--|

G|-------------|-----------------|-------------|-----------------|
D|-------------|-----------------|-------------|-----------------|
A|--------5----|-----------------|-------------|-----------------|
E|--0-557---0--|--0--0--0--0--0--|--0-555-7-0--|--0--0--0--0--0--|

G|---------------|
D|---------------|
A|---7-7---------|  x8
E|---0-0---0000--|

G|---------------|---------------|---------------|---------------|
D|---------------|---------------|---------------|---------------|
A|---7-7---8-8---|---5-5---6-6---|---7-7---8-8---|---5-5---6-6---|
E|---------------|---------------|---------------|---------------|

G|---------------|---------------|---------------|---------------|
D|---------------|---------------|---------------|---------------|
A|---7-7---8-8---|---5-5---6-6---|---7-7---7-7---|---7-7---7-7---|
E|---------------|---------------|---------------|---------------|

G|--7-7---------7-7---------7-7------|
D|--7-7---------7-7---------7-7------|
A|--5-5---------5-5---------5-5------|
E|-----------------------------------|

G|--5-7-7-4-5-5-2-4-4-1-2/1\2-2------|
D|--0-0-0-0-0-0-0-0-0-0-0---0-0------|
A|-----------------------------------|
E|-----------------------------------|


Chorus 2

G|--9-9-------9-9-------9-9-------9-9-----9----9-----|
D|--9-9-------9-9-------9-9-------9-9-----9----9-----|
A|--7-7-------7-7-------7-7-------7-7-----7----7-----|
E|---------------------------------------------------|


Interlude

G|-----------------------------------|
D|-----------------------------------|
A|-----------------------------------|
E|-6-6-6-6-6-6-6-6-6-6-6-6-6-6-6-6-6\|

G|-----------------------------------|
D|-----------------------------------|
A|-----------------------------------|
E|-1-1-1-1-1-1-1-1-1-1-1-1-1-1-1-1-1/|

G|-----------------------------------|
D|-----------------------------------|
A|-----------------------------------|
E|-6-6-6-6-6-6-6-6-6-6-6-6-6-6-6-6-6\|

G|-----------------------------------|
D|-----------------------------------|
A|-----------------------------------|
E|-1-1-1-1-1-1-1-1/5-5-5-5-5-5-5-5-5-|

G|-----------------------------------|
D|-----------------------------------|
A|-----------------------------------|
E|-3-3-3-3-3-3-3-3-3-3-3-3-3-3-3-3-5\|

G|-----------------------------------|
D|-----------------------------------|
A|-----------------------------------|
E|-1-1-1-1-1-1-1-1/5-5-5-5-5-5-5-5-5\|

G|-----------------------------------|
D|-----------------------------------|
A|-----------------------------------|
E|-3-3-3-3-3-3-3-3-3-3-3-3-3-3-3-3-5\|

G|-----------------------------------|
D|-----------------------------------|
A|-----------------------------------|
E|-1-1-1-1-1-1-1-1/5-5-5-5-5-5-5-5-5-|


Solo

G|--9-9-------9-9-------9-9-------9-9-----9----9-----|  |
D|--9-9-------9-9-------9-9-------9-9-----9----9-----|  |
A|--7-7-------7-7-------7-7-------7-7-----7----7-----|  |
E|---------------------------------------------------|  |
                                                        |
G|--7-7---------7-7---------7-7------|                  |
D|--7-7---------7-7---------7-7------|                  |
A|--5-5---------5-5---------5-5------|                  |  x2
E|-----------------------------------|                  |
                                                        |
G|--5-7-7-4-5-5-2-4-4-1-2/1\2-2------|                  |
D|--0-0-0-0-0-0-0-0-0-0-0---0-0------|                  |
A|-----------------------------------|                  |
E|-----------------------------------|                  |

G|--9-9-------9-9--7777-9-9--7777-9-9-----9----9-----|
D|--9-9-------9-9--7777-9-9--7777-9-9-----9----9-----|
A|--7-7-------7-7--5555-7-7--5555-7-7-----7----7-----|
E|---------------------------------------------------|

G|--5-7-7-4-5-5-2-4-4-1-2/1\2-2------|
D|--0-0-0-0-0-0-0-0-0-0-0---0-0------|
A|-----------------------------------| x3
E|-----------------------------------|

G|--5-7-7/7-8-8/9-10-10/12-14/12\14-14--|
D|--0-0-0-0-0-0-0--0--0--0--0-----0--0--|
A|--------------------------------------|
E|--------------------------------------|


Chorus 3 & End

G|--9-9-------9-9-------9-9-------9-9-----9----9-----|
D|--9-9-------9-9-------9-9-------9-9-----9----9-----|
A|--7-7-------7-7-------7-7-------7-7-----7----7-----|
E|---------------------------------------------------|

G|--7-7---------7-7---------7-7------|
D|--7-7---------7-7---------7-7------|
A|--5-5---------5-5---------5-5------|
E|-----------------------------------|

G|--5-7-7-4-5-5-2-4-4-1-2/1\2-2------|
D|--0-0-0-0-0-0-0-0-0-0-0---0-0------|
A|-----------------------------------|
E|-----------------------------------|

G|--9-9--7777-9-9--7777-9-9--7777-9-9-----9----9-----|
D|--9-9--7777-9-9--7777-9-9--7777-9-9-----9----9-----|
A|--7-7--5555-7-7--5555-7-7--5555-7-7-----7----7-----|
E|---------------------------------------------------|

G|--5-7-7-4-5-5-2-4-4-1-2/1\2-2------|
D|--0-0-0-0-0-0-0-0-0-0-0---0-0------|
A|-----------------------------------| x4
E|-----------------------------------|

G|--9-9--7777-9-9--7777-9-9--7777-9-9-----9----9-----|
D|--9-9--7777-9-9--7777-9-9--7777-9-9-----9----9-----|
A|--7-7--5555-7-7--5555-7-7--5555-7-7-----7----7-----|
E|---------------------------------------------------|

G|--5/7--5--4--2--1--2/1\2-----------|
D|-----------------------------------|
A|-----------------------------------| x4
E|-----------------------------------|

G|----9-9------|
D|----9-9------|
A|----7-7------|
E|-------------|


| /  slide up
| \  slide down
=====================================================================
Добавлено: 25.03.2016
Другие материалы по этой песне:

Страница создана 16.10.2015
http://primanota.ru/faith-no-more/superhero-chords.htm
Привет, Гость.
Предлагаем пройти революционный курс по гитаре.
Подарок от PrimaNota.Ru, забирай!