PrimaNota.ru - самый крупный в мире бесплатный архив песенных текстов, аккордов, табулатур и нот


Faith No More - Cone Of Shame - таба, видео

Регистрация Запомнить меня
Войти через:  Facebook Google Twitter Vk Yandex Mail.ru

Faith No More - Cone Of Shame - таба, видео

Печатать
Просмотров: 107
Авторы: Faith No More

Awesome tune from still hot album from FNM, Mike Patton is best vocalist in the Universe.

The song is pretty straightforward, I wrote notes, Your role is to figure rythm by yourself. 
It ain't hard anyway, but writing it in tab is.

Feel free to improve this tab, but I think everything except rythm is on spot.

P.M. palm mutes  () optional notes, play them when You want  (/) Slide Up  (\) Slide Down  



E|-----------------------|--------------|--------------|        --------|--
B|-----------------------|--------------|--------------|        --------|--
G|-----------------------|--------------|--------------|        --------|--
D|-----------------------|--------------|--------------| 2x     --------|--
A|-----7-----10------13--|-----5-----7--|-----7-----6--|        -----7--|--
E|--5-----8------11------|--3-----5-----|--8-----7-----|        --5-----|--



E|--------------
B|--------------
G|--7--5-----4--
D|--7--5--4-----
A|--5--3--2-----
E|-(5)(3)(2)----

(optional but it sounds cool)


E|--------------------------------------|---
B|--------------------------------------|---
G|--------------------------------------|---
D|--2--5--8--9--10--13--14-----------2--|--2  countless times
A|--2--5--8--9--10--13--14-----------2--|--2
E|--0--3--6--7--8---11--12--0--0--0--0--|--0

        Strum it quickly    - P.M. -



E|-----------------------------------------------------------------------------------------|--
B|-----------------------------------------------------------------------------------------|--
G|-------9--(12)--12-(15)--11--10--9--9--9--9--12--12--12--12--11--11--11--11--14--14--14--|--
D|/-/-2--9--(9)---12-(12) -11--10--9--9--9--9--12--12--12--12--11--11--11--11--14--14--14--|--
A|/-/-2------------------------------------------------------------------------------------|--
E|/-/-0------------------------------------------------------------------------------------|--

    again, strum it as long as your wrist starts burning



E|-----------------------------------------------------------------------------------------|-- ∞
B|-----------------------------------------------------------------------------------------|-- ∞
G|-----------------------------------------------------------------------------------------|-- ∞
D|-----2--------------------------------------------------------------------------7--5--2--|-- ∞
A|-----2--------------------------------------------------------------------------7--5--2--|-- ∞
E|--12\0--0--0--0--0--3--0--0--0--0--0--0--0--0--0--0--3--0--0--0--0--0--0--0--0--5--3--0--|-- ∞
       
       E        (sounds good palm muted)                                                  A  G  E
                                                         
                Figure out how many times struck 000, this is djent baby!

Background guitar

E|------------------------------------------------------------------------------------------|
B|------------------------------------------------------------------------------------------|
G|--9--9--9--9--9--8--9--9--9--9--9--9--9--9--9--9--9--9--9--9--9--9--9--9--9--8--9--14--12-| over 9000
D|--9--9--9--9--9--8--9--9--9--9--9--9--9--9--9--9--9--9--9--9--9--9--9--9--9--8--9--14--12-|
A|------------------------------------------------------------------------------------------|
E|------------------------------------------------------------------------------------------|
        
    E              Eb                                                                A   G
        
E|-------
B|-------
G|-------
D|----2--
A|----2--
E|----0--

All hail Djent No More!
Добавлено: 16.10.2015
Вам также может быть интересно:
Другие материалы по этой песне:

Страница создана 16.10.2015
http://primanota.ru/faith-no-more/cone-of-shame-chords.htm
Привет, Гость.
Предлагаем пройти революционный курс по гитаре.
Подарок от PrimaNota.Ru, забирай!