PrimaNota.ru - самый крупный в мире бесплатный архив песенных текстов, аккордов, табулатур и нот


Fairport Convention - Tam Lin - аккорды и текст, таба, видео

Регистрация Запомнить меня
Войти через:  Facebook Google Twitter Vk Yandex Mail.ru

Fairport Convention - Tam Lin - аккорды и текст, таба, видео

Печатать
Просмотров: 264
Авторы: [traditional]

Tam Lin
Fairport Convention
TAM LIN

capo 2

Dsus4 000233
Dsus2 000230

Em    D               G  Em       D                Em
I forbid you maidens   all  that wear gold in your hair
Em        D  G       Em      D Dsus4 Dsus2 D  Em 
To travel to Carterhaugh for young Tam Lin is there
e|-------------------------|
B|-------------------------|
G|-0--2--0-----------------|
D-----------2--0-----0--2--|
A|----------------2--------|
E|-------------------------|
Em        D     G       Em      D                Em 
None that go by Carterhaugh but they leave him a pledge
Em     D                 G  Em      D Dsus4 Dsus2 D   Em
Either their mantles of  green  or else their maiden head
e|-------------------------|
B|-------------------------|
G|-0-2--0------------------|
D----------2--0-----0--2---|
A|---------------2---------|
E|-------------------------|
Em    D              G   Em    D             Em 
Janet tied her kirtle green  a bit above her knee 
Em        D       G       Em     D Dsus4 Dsus2 D   Em 
And she's gone to Carterhaugh as fast as   go can  she
e|-------------------------|
B|-------------------------|
G|-0--2--0-----------------|
D-----------2--0-----0--2--|
A|----------------2--------|
E|-------------------------|
Em        D               G  Em   D             Em 
She'd not pulled a double rose, a rose but only two
Em            D          G    Em        D Dsus4 Dsus2 D  Em 
When up there came young Tam Lin, says "Lady,  pull   no more"
e|-------------------------|
B|-------------------------|
G|-0--2--0-----------------|
D-----------2--0-----0--2--|
A|----------------2--------|
E|-------------------------|
Em       D           G       Em          D            Em 
"And why come you to Carterhaugh without command from me?"
Em             D                G  Em      D Dsus4 Dsus2 D  Em 
"I'll come and go", young Janet said, "and ask no leave of  thee"
e|-------------------------|
B|-------------------------|
G|-0--2--0-----------------|
D-----------2--0-----0--2--|
A|----------------2--------|
E|-------------------------|
Em    D               G  Em   D             Em 
Janet tied her kirtle green a bit above her knee
Em        D            G  Em     D Dsus4 Dsus2 D  Em 
And she's gone to her father as  fast as go   can she
e|-------------------------|
B|-------------------------|
G|-0--2--0-----------------|
D-----------2--0-----0--2--|
A|----------------2--------|
E|-------------------------|
Em            D                G  Em       D              Em 
Well, up then spoke her father dear and he spoke meek and mild
Em       D                  G  Em     D Dsus4 Dsus2 D    Em 
"Oh, and alas, Janet," he   said,   "I think you go with child"
e|-------------------------|
B|-------------------------|
G|-0--2--0-----------------|
D-----------2--0-----0--2--|
A|----------------2--------|
E|-------------------------|
Em                D         G  Em   D                     Em 
"Well, if that be so," Janet said, "myself shall bear the blame
Em            D                 G  Em       D Dsus4 Dsus2 D  Em 
There's not a knight in all your hall shall get the  baby's  name"
e|-------------------------|
B|-------------------------|
G|-0--2--0-----------------|
D-----------2--0-----0--2--|
A|----------------2--------|
E|-------------------------|
Em        D                    G  Em     D              Em 
For if my love were an earthly knight as he is an elfin grey
Em      D                  G  Em    D Dsus4 Dsus2 D  Em 
I'd not change my own true love for any  knight  you have"
e|-------------------------|
B|-------------------------|
G|-0--2--0-----------------|
D-----------2--0-----0--2--|
A|----------------2--------|
E|-------------------------|
Em    D               G  Em   D             Em 
Janet tied her kirtle green a bit above her knee
Em        D       G       Em     D Dsus4 Dsus2 D  Em 
And she's gone to Carterhaugh as fast as go can   she
e|-------------------------|
B|-------------------------|
G|-0--2--0-----------------|
D-----------2--0-----0--2--|
A|----------------2--------|
E|-------------------------|
Em           D                G  Em   D                    Em 
"Oh, tell to me, Tam Lin," she said, "why came you here to dwell?"
Em            D            G  Em     D  Dsus4  Dsus2 D   Em 
"The Queen of Faeries caught me     when from my horse I fell
e|-------------------------|
B|-------------------------|
G|-0--2--0-----------------|
D-----------2--0-----0--2--|
A|----------------2--------|
E|-------------------------|
Em         D            G  Em     D               Em 
And at the end of seven years she pays a tithe to Hell
Em    D               G  Em     D Dsus4 Dsus2 D   Em 
I so fair and full of flesh and feared   it   be  myself
e|-------------------------|
B|-------------------------|
G|-0--2--0-----------------|
D-----------2--0-----0--2--|
A|----------------2--------|
E|-------------------------|
Em  D              G   Em         D           Em 
But tonight is Hallowe'en and the faerie folk ride
Em         D                    G  Em    D Dsus4  Dsus2   D    Em 
Those that would their true love win at Miles Cross they must  hide
e|-------------------------|
B|-------------------------|
G|-0--2--0-----------------|
D-----------2--0-----0--2--|
A|----------------2--------|
E|-------------------------|
Em        D               G  Em     D                 Em 
First let past the horses black and then let past the brown
Em      D                G  Em     D Dsus4 Dsus2 D  Em 
Quickly run to the white steed and pull the  rider  down
e|-------------------------|
B|-------------------------|
G|-0--2--0-----------------|
D-----------2--0-----0--2--|
A|----------------2--------|
E|-------------------------|
Em       D                 G  Em      D              Em 
For I'll ride on the white steed, the nearest to the town
Em    D              G  Em        D Dsus4 Dsus2 D  Em 
For I was an earthly knight, they give   me  that  renown
e|-------------------------|
B|-------------------------|
G|-0--2--0-----------------|
D-----------2--0-----0--2--|
A|----------------2--------|
E|-------------------------|
Em            D               G  Em     D         Em 
Oh, they will turn me in your arms to a newt or a snake
Em          D             G  Em     D Dsus4 Dsus2 D  Em 
But hold me tight and fear not, I   am your  baby's  father
e|-------------------------|
B|-------------------------|
G|-0--2--0-----------------|
D-----------2--0-----0--2--|
A|----------------2--------|
E|-------------------------|
Em            D              G  Em  D           Em 
And they will turn me in your arms  into a lion bold
Em          D             G  Em      D Dsus4  Dsus2 D   Em 
But hold me tight and fear not   and you will love your child
e|-------------------------|
B|-------------------------|
G|-0--2--0-----------------|
D-----------2--0-----0--2--|
A|----------------2--------|
E|-------------------------|
Em            D               G  Em     D       Em 
And they will turn me in your arms into a naked knight
Em           D       G  Em      D Dsus4 Dsus2 D  Em 
But cloak me in your mantle and keep  me out of  sight"
e|-------------------------|
B|-------------------------|
G|-0--2--0-----------------|
D-----------2--0-----0--2--|
A|----------------2--------|
E|-------------------------|
Em     D              G  Em      D                Em 
In the middle of the  night she  heard the bridle ring
Em         D            G  Em      D Dsus4 Dsus2 D   Em 
She heeded what he did   say   and young Tam Lin did win
e|-------------------------|
B|-------------------------|
G|-0--2--0-----------------|
D-----------2--0-----0--2--|
A|----------------2--------|
E|-------------------------|
Em      D                G  Em     D               Em 
Then up spoke the Faerie Queen, an angry queen was she
Em      D                 G  Em     D Dsus4 Dsus2 D    Em 
"Woe betide her ill-fought face, an I'll death may she die"
e|-------------------------|
B|-------------------------|
G|-0--2--0-----------------|
D-----------2--0-----0--2--|
A|----------------2--------|
E|-------------------------|
Em         D                   G  Em        D                Em 
"Oh, had I known, Tam Lin," she said, "what this night I did see
Em     D                G  Em     D Dsus4 Dsus2 D  Em 
I have looked him in the eyes and turn  him to a   tree
e|-------------------------|
B|-------------------------|
G|-0--2--0-----------------|   x 2
D-----------2--0-----0--2--|
A|----------------2--------|
E|-------------------------|
Добавлено: 17.10.2015
Другие материалы по этой песне:
  • Аккорды и текст

Страница создана 06.05.2012
http://primanota.ru/fairport-convention/tam-lin-chords.htm
Привет, Гость.
Предлагаем пройти революционный курс по гитаре.
Подарок от PrimaNota.Ru, забирай!