PrimaNota.ru - самый крупный в мире бесплатный архив песенных текстов, аккордов, табулатур и нот


Fairport Convention - Portmeirion - таба, видео

Регистрация Запомнить меня
Войти через:  Facebook Google Twitter Vk Yandex Mail.ru

Fairport Convention - Portmeirion - таба, видео

Печатать
Просмотров: 23
INTRO
(just playing around with D, Dsus4, and Dsus2)

Play the left side 3 times, then the right side. 

e:2----2-----2--2h3----3------|-2---2------0----0-----------------------|
B:-------3---------------3----|-------3-----------3---------------------|
G:----------------------------|-----------------------------------------|
D:0-0--------0--0----0-----0--|-0-0-----0--0-0------0-------------------|
A:----------------------------|-----------------------------------------|
D:----------------------------|-----------------------------------------|  

Chords

D Bm A G 
D F#m A G
D Bm A G
D A G  
                x2

F#m Bm
F#m Bm
G A G A

F#m Bm
F#m Bm
G D alternate G A G A G A 


The lead should be played on a violin but whatever...

                                                                         
                                       1st ending    2nd ending
e:-3-2-----0-2-0-----------2-2h5p2-|-0-----0------|-0--------------------|
B:-----3-3-------2-----2-3---------|---3-2--3-2-0-|---3-2-0--------------|
G:-----------------2-4-------------|--------------|----------------------|
D:---------------------------------|--------------|----------------------|
A:---------------------------------|--------------|----------------------|
E:---------------------------------|--------------|----------------------| 
Play all that twice, then:

e:------------------------------------------2-2h3p2-0------2-2h3p2-0---------------------5-|
B:-----2-0-----2-0---------------2-3-2----------------3-2------------3-2---0----3-----5----|
G:-2-4-----2-4---------2-4-2---4-----------------------------------------------------------|
D:-----------------4-5---------------------------------------------------------------------|
A:-----------------------------------------------------------------------------------------|
E:-----------------------------------------------------------------------------------------|

Добавлено: 31.05.2016
Другие материалы по этой песне:
  • Аккорды и текст

Страница создана 31.05.2016
http://primanota.ru/fairport-convention/portmeirion-chords.htm
Привет, Гость.
Предлагаем пройти революционный курс по гитаре.
Подарок от PrimaNota.Ru, забирай!