PrimaNota.ru - самый крупный в мире бесплатный архив песенных текстов, аккордов, табулатур и нот


Fair To Midland - Upgradebrigade - текст песни, таба, видео

Регистрация Запомнить меня
Войти через:  Facebook Google Twitter Vk Yandex Mail.ru

Fair To Midland - Upgradebrigade - текст песни, таба, видео

Печатать
Просмотров: 149
-------------------------------------------------------------------------------
                             UPGRADE^BRIGADE - Fair To Midland
-------------------------------------------------------------------------------
Tabbed by: Sam "the SMARTEST MAN ALIVE" Henly.
Email: sam_henners@hotmail.com

Tuning:Tuning cCGCGC as shown.

Rate pls.

(my Kyla tab:http://ultimate-guitar.com/tabs/f/fair_to_midland/kyla_cries_cologne_tab.htm)


Intro/Pre-verse
===============

c|--------------------------------------------------------|
c|--------------------------------------------------------|
g|--------------------------------------------------------|
c|-35630-35630-356035630-35630-356035630-35630-356-10-8~--|
g|-35630-35630-356035630-35630-356035630-35630-356-10-8~--|
c|-35630-35630-356035630-35630-356035630-35630-356-10-8~--| x2

c|------------------------|
c|------------------------|
g|------10-10-10-10/12-12-|
c|-12~--10-10-10-10/12-12-|
g|-12~--8--8--8--8-/10-10-|
c|-12~--8--8--8--8-/10-10-|

c|---
c|-12
g|-12
c|-12
g|-10
c|--- w/ muting and effects

verse
=====

This is far too awesome for my brain to understand and tab out, so this is as
close as I'm getting.
(If you've got better submit as tab or at least email me so I can learn it).

c|--------------------------------------------------|
c|--------------------------------------------------|
g|-----------------------------------7p5-8p5-9p5-10-|
c|-1/35630-1/35670--1/3560-1/35630-35---------------|
g|--------------------------------------------------|
c|--------------------------------------------------|
   "Glow, but don't shine..."
c|-----------------|
c|-----------------|
g|-----------------|
c|-5p0-3p0-5p0-6p0-|
g|-----------------|
c|-----------------|

pre-chorus
==========

c|--------------|
c|-7-7-7\5-5-5--|
g|-7-7-7\5-5-5--|
c|-7-7-7\5-5-5--|
g|-5-5-5\3-3-3--|
c|--------------| x3
  "For we are..."

c|-------------------------|
c|-10-10-10-10-12-12-12-12-|
g|-10-10-10-10-12-12-12-12-|
c|-10-10-10-10-12-12-12-12-|
g|-8--8--8--8--10-10-10-10-|
c|-------------------------|

c|---------------------------|
c|---------------------------|
g|---------------------------|
c|-10-x-10-8-x-8-7-x-7-8-x-8-|
g|-10-x-10-8-x-8-7-x-7-8-x-8-|
c|-10-x-10-8-x-8-7-x-7-8-x-8-|
  "Give, given air..."

c|-------------------------------------|
c|-------------------------------------|
g|-------------------------------------|
c|-1010101010-88888-77777-888888888888-|
g|-1010101010-88888-77777-888888888888-|
c|-1010101010-88888-77777-888888888888-|
              "Does the sun know..."

Chorus
======

guitar1
c|----------------|
c|----------------|
g|----------------|
c|-777778888855555
g|-777778888855555
c|-777778888855555

guitar2
c|-------------------------------------------|
c|-7-7-7-7-7-7-7-10-10-12-12-13-13-7-7-7-7-7-|
g|-------------------------------------------|
c|-------------------------------------------|
g|-------------------------------------------|
c|-------------------------------------------|
   "Today, I forgot the zeros and ones..."

------

c|------------|
c|------------|
g|------------|
c|-8-7-3-5-10-|
g|-8-7-3-5-10-|
c|-8-7-3-5-10-|
   "Told you to conquer the rush"

Outro
=====

c|---------------------------------------------------------------------|
c|------7777------7777------8888------8888------10101010------10101010-|
g|---------------------------------------------------------------------|
c|-7777------7777------8888------8888------5555----------5555----------|
g|-7777------7777------8888------8888------5555----------5555----------|
c|-7777------7777------8888------8888------5555----------5555----------|

c|------------|
c|------------|
g|------------|
c|-8-7-3-5-10-|
g|-8-7-3-5-10-|
c|-8-7-3-5-10-|

c|---------------------------------------------------------------------|
c|------7777------7777------8888------8888------10101010------10101010-|
g|---------------------------------------------------------------------|
c|-7777------7777------8888------8888------5555----------5555----------|
g|-7777------7777------8888------8888------5555----------5555----------|
c|-7777------7777------8888------8888------5555----------5555----------|

------

guitar1
c|---------------------------|
c|---------------------------|
g|---------------------------|
c|-8-7-3-5-10--8-7-3-5-10-0~-|
g|-8-7-3-5-10--8-7-3-5-10-0~-|
c|-8-7-3-5-10--8-7-3-5-10-0~-|

guitar2
c|---------------------------|
c|-8-7-3-5-10--8-7-3-5-10-0~-|
g|---------------------------|
c|---------------------------|
g|---------------------------|
c|---------------------------|

| /  slide up
| \  slide down
| h  hammer-on
| p  pull-off
| ~  let ring
| x  Mute note
Добавлено: 13.07.2012
Другие материалы по этой песне:
  • Аккорды и текст

Страница создана 17.03.2012
http://primanota.ru/fair-to-midland/upgradebrigade-chords.htm
Привет, Гость.
Предлагаем пройти революционный курс по гитаре.
Подарок от PrimaNota.Ru, забирай!