PrimaNota.ru - самый крупный в мире бесплатный архив песенных текстов, аккордов, табулатур и нот


Fair To Midland - April Fools And Eggmen - текст песни, таба, видео

Регистрация Запомнить меня
Войти через:  Facebook Google Twitter Vk Yandex Mail.ru

Fair To Midland - April Fools And Eggmen - текст песни, таба, видео

Печатать
Просмотров: 91
I dont know what this tuning is called the tuning for this
song is "CGCGCC"


__________________________________
C|
C|
G|-----7-2-3-5----X3---7-2-3--7-2-3-|
C|-----7-2-3-5----X3---7-2-3--7-2-3-|
G|-----7-2-3-5----X3---7-2-3--7-2-3-|
C|-----7-2-3-5----X3---7-2-3--7-2-3-|

C|
C|
G|---7-2-3----------------------7-2-3-|
C|---7-2-3----------------------7-2-3-|
G|---7-2-3----------------------7-2-3-|
C|---7-2-3----------------------7-2-3-|
_________________________________
C|
C|
G|-----7-2-3-5----X3---7-2-3--7-2-3-|
C|-----7-2-3-5----X3---7-2-3--7-2-3-|
G|-----7-2-3-5----X3---7-2-3--7-2-3-|
C|-----7-2-3-5----X3---7-2-3--7-2-3-|

C|
C|
G|---7-2-3---------------------7-2-3------7-2-3--7-2-3|
C|---7-2-3---------------------7-2-3------7-2-3--7-2-3|
G|---7-2-3---------------------7-2-3------7-2-3--7-2-3|
C|---7-2-3---------------------7-2-3------7-2-3--7-2-3|
_______________________________

The two bottom string are tuned exactly the same
so it dosen't matter which of the two you use.

C|---------7-7-9-9-10-10-12-12-14-14-12-12--10-10-9-9-|
C|
G|
C|
G|
C|
_______________________________
C|
C|
G|-----3--3-3-3--3-3-3---0--0-0-0--0-0-0-|
C|-----3--3-3-3--3-3-3---0--0-0-0--0-0-0-|
G|-----3--3-3-3--3-3-3---0--0-0-0--0-0-0-|
C|-----3--3-3-3--3-3-3---0--0-0-0--0-0-0-|

                                           X2 (2nd time replace "5"s with "2"s)

G|-7--7-7-7--7-7-7--5--5-5-5--5-5-5---|
C|-7--7-7-7--7-7-7--5--5-5-5--5-5-5---|
G|-7--7-7-7--7-7-7--5--5-5-5--5-5-5---|
C|-7--7-7-7--7-7-7--5--5-5-5--5-5-5---|
_______________________________


C|
C|
G|-----3--3-3-3--3-3-3--5--5--5--5---7-2-3-5--7-2-3-|
C|-----3--3-3-3--3-3-3--5--5--5--5---7-2-3-5--7-2-3-|
G|-----3--3-3-3--3-3-3--5--5--5--5---7-2-3-5--7-2-3-|
C|-----3--3-3-3--3-3-3--5--5--5--5---7-2-3-5--7-2-3-|


C|
C|
G|-7-2-3----7-2-3---------7-2-3---------7-2-3-|
C|-7-2-3----7-2-3---------7-2-3---------7-2-3-|
G|-7-2-3----7-2-3---------7-2-3---------7-2-3-|
C|-7-2-3----7-2-3---------7-2-3---------7-2-3-|
______________________________

C|---------7-7-9-9-10-10-12-12-14-14-12-12--10-10-9-9-|
C|
G|
C|
G|
C|

C|
C|
G|-----3--3-3-3--3-3-3---0--0-0-0--0-0-0-|
C|-----3--3-3-3--3-3-3---0--0-0-0--0-0-0-|
G|-----3--3-3-3--3-3-3---0--0-0-0--0-0-0-|
C|-----3--3-3-3--3-3-3---0--0-0-0--0-0-0-|

                                           X2 (2nd time replace "5"s with "2"s)

G|-7--7-7-7--7-7-7--5--5-5-5--5-5-5---|
C|-7--7-7-7--7-7-7--5--5-5-5--5-5-5---|
G|-7--7-7-7--7-7-7--5--5-5-5--5-5-5---|
C|-7--7-7-7--7-7-7--5--5-5-5--5-5-5---|
_______________________________

C|
C|
G|-----3--3--3--3--3--3--3--3--|-------------|
C|-----3--3--3--3--3--3--3--3--|-------------|
G|-----3--3--3--3--3--3--3--3--|3-X32--------|
C|-----3--3--3--3--3--3--3--3--|3-X32--------|

C|
C|
G|-----7-5-2-0--X3|---7-5-2-5|
C|-----7-5-2-0--X3|---7-5-2-5|
G|-----7-5-2-0--X3|---7-5-2-5|
C|-----7-5-2-0--X3|---7-5-2-5|

_________________________________________
C|-----3--3-3-3--3-3-3---0--0-0-0--0-0-0-|
C|-----3--3-3-3--3-3-3---0--0-0-0--0-0-0-|
G|-----3--3-3-3--3-3-3---0--0-0-0--0-0-0-|
C|-----3--3-3-3--3-3-3---0--0-0-0--0-0-0-|
G|
C|

G|-7--7-7-7--7-7-7--5--5-5-5--5-5-5---|
C|-7--7-7-7--7-7-7--5--5-5-5--5-5-5---|
G|-7--7-7-7--7-7-7--5--5-5-5--5-5-5---|
C|-7--7-7-7--7-7-7--5--5-5-5--5-5-5---|
__________________________________________

C|
C|
G|-----3--3-3-3--3-3-3---0--0-0-0--0-0-0-|
C|-----3--3-3-3--3-3-3---0--0-0-0--0-0-0-|
G|-----3--3-3-3--3-3-3---0--0-0-0--0-0-0-|
C|-----3--3-3-3--3-3-3---0--0-0-0--0-0-0-|

G|-7--7-7-7--7-7-7--2--2-2-2--2-2-2---|
C|-7--7-7-7--7-7-7--2--2-2-2--2-2-2---|
G|-7--7-7-7--7-7-7--2--2-2-2--2-2-2---|
C|-7--7-7-7--7-7-7--2--2-2-2--2-2-2---|
_______________________________
C|
C|
G|-----3--3-3-3--3-3-3---0--0-0-0--0-0-0-|
C|-----3--3-3-3--3-3-3---0--0-0-0--0-0-0-|
G|-----3--3-3-3--3-3-3---0--0-0-0--0-0-0-|
C|-----3--3-3-3--3-3-3---0--0-0-0--0-0-0-|

G|-7--7-7-7--7-7-7--5--5-5-5--5-5-5---|
C|-7--7-7-7--7-7-7--5--5-5-5--5-5-5---|
G|-7--7-7-7--7-7-7--5--5-5-5--5-5-5---|
C|-7--7-7-7--7-7-7--5--5-5-5--5-5-5---|
_______________________________

C|
C|
G|-3--3-3-3--3-3-3--5--5--5|
G|-3--3-3-3--3-3-3--5--5--5|
C|-3--3-3-3--3-3-3--5--5--5|
C|-3--3-3-3--3-3-3--5--5--5|

C|
C|
G|-----7-2-3-5----X3---7-2-3--7-2-3|
C|-----7-2-3-5----X3---7-2-3--7-2-3|
G|-----7-2-3-5----X3---7-2-3--7-2-3|
C|-----7-2-3-5----X3---7-2-3--7-2-3|
Добавлено: 10.04.2012
Другие материалы по этой песне:
  • Аккорды и текст

Страница создана 10.04.2012
http://primanota.ru/fair-to-midland/april-fools-and-eggmen-chords.htm
Привет, Гость.
Предлагаем пройти революционный курс по гитаре.
Подарок от PrimaNota.Ru, забирай!