PrimaNota.ru - самый крупный в мире бесплатный архив песенных текстов, аккордов, табулатур и нот


Fair To Midland - A Loophole In Limbo - таба, видео

Регистрация Запомнить меня
Войти через:  Facebook Google Twitter Vk Yandex Mail.ru

Fair To Midland - A Loophole In Limbo - таба, видео

Печатать
Просмотров: 66
-----------------------------------------------------
        A Loophole In Limbo - Fair To Midland
-----------------------------------------------------
Tabbed by: Kristyn Lee
Email: spot_the_village_loony_836@hotmail.com

Tuning: Drop B

Intro
         t         t        t        t
C#|-------------------------------------------------|
G#|----8/15-----20\15----8/15-----10-8--------------|
E |-------------------------------------------------|
B |-------------------------------------------------|
G#|-------------------------------------------------|
B |-------------------------------------------------|

Intro pt. 2
C#|-------------------------------------------------|\
G#|-------------------------------------------------| \
E |-------------------------------------------------|x2\
B |---8-8p7--7\5-5\3-3/5----------------------------|   \
G#|---5-5----5\3-3\1-1/3----------------------------|    \
B |---5-5----5\3-3\1-1/3----------------------------|     \
                                                            x2
                                                          /
C#|------------------------------------------------|     /
G#|------------------------------------------------|    /
E |------------------------------------------------| x1/
B |---8--10--5--3--1--3---1010--5--3--1--3---------|  /
G#|---5--10--5--3--1--3---1010--5--3--1--3---------| /
B |---5--10--5--3--1--3---1010--5--3--1--3---------|/


C#|-----------------------|
G#|-----------------------|
E |-----------------------| x1
B |---10--5--3-3-5-3------|
G#|---10--5--3-3-5-3------|
B |---10--5--3-3-5-3------|

acoustic verse
C#|-------------------|  |----------------------|
G#|-------------------|  |----------------------|
E |-------------------|x2|----------------------|
B |---8-8p7-7\5-3/5---|  |---12--8--7--5--7-----|
G#|---5-5---5\3-1/3---|  |---12--8--7--5--7-----|
B |---5-5---5\3-1/3---|  |---12--8--7--5--7-----|

C#|-----------------------|
G#|-----------------------|
E |-----------------------| x1
B |---10--5--3-3-5-3------|
G#|---10--5--3-3-5-3------|
B |---10--5--3-3-5-3------|

Repeat acoustic verse


Chorus
C#|-----------------------------------------------|
G#|-----------------------------------------------|
E |---5555555555555555----------------------------|
B |---5555555555555555----------------------------|
G#|---3333333333333333--1111111111111111----------|
B |---------------------1111111111111111----------| 
                                                       x2
C#|-----------------------------------------------|
G#|-----------------------------------------------|
E |---3333333333333333----------------------------|
B |---3333333333333333----------------------------|
G#|---1111111111111111--3333333333333333----------|
B |---------------------3333333333333333----------|

bit after chorus
C#|-----------------------------------------|
G#|-----------------------------------------|
E |--------------3--5-----------------------|
B |---1~-----3~---------1~-----3~-----------|
G#|---1~-----3~---------1~-----3~-----------|
B |---1~-----3~---------1~-----3~-----------|

Repeat intro

Repeat acoustic verse

Repeat Chorus

bit after chorus
C#|-----------------------------------------|
G#|-----------------------------------------|
E |--------------3--5-----------------------|
B |---1~-----3~---------1~-----3~-----------|
G#|---1~-----3~---------1~-----3~-----------|
B |---1~-----3~---------1~-----3~-----------|

Repeat chorus then intro again

The End

************************************

| /   slide up
| \   slide down
| h   hammer-on
| p   pull-off
| ~   vibrato
| +   harmonic
| x   Mute note
| b   Bend
| pb  Pre-bend
| br  Bend release
| pbr Pre-bend release
| brb Bend release bend

************************************
Добавлено: 11.10.2013
Другие материалы по этой песне:
  • Аккорды и текст

Страница создана 11.10.2013
http://primanota.ru/fair-to-midland/a-loophole-in-limbo-chords.htm
Привет, Гость.
Предлагаем пройти революционный курс по гитаре.
Подарок от PrimaNota.Ru, забирай!