PrimaNota.ru - самый крупный в мире бесплатный архив песенных текстов, аккордов, табулатур и нот


Faint - Typing 1974-2048 - текст песни, таба, видео

Регистрация Запомнить меня
Войти через:  Facebook Google Twitter Vk Yandex Mail.ru

Faint - Typing 1974-2048 - текст песни, таба, видео

Печатать
Просмотров: 133
This is one of the earlier Faint songs off Media, there first album. It's a semi-simple song.

*Intro* (after feedback) (clean) 2x
 Bm      A       G       A
--2----0-0-0----3-3----0-0-0-----|
--3----2-2-2----3-3----2-2-2-----|
--4----2-2-2----0-0----2-2-2-----|
--4----2-2-2----0-0----2-2-2-----|
--2----0-0-0----2-2----0-0-0-----|
----------------3-3--------------|


*Verse* (Same root notes)(distorted)
-------------------------------------|
-------------------------------------|
-------------------------------------|
-9-9-9-9--7-7-7-7--5-5-5-5--7-7-7-7--|
-9-9-9-9--7-7-7-7--5-5-5-5--7-7-7-7--|
-7-7-7-7--5-5-5-5--3-3-3-3--5-5-5-5--|

*Riff* (fast) (distorted)
--7--9-7-9-7--9--10--12--14--|--7--9-7-9-7--9--10--12-10-9--|
-----------------------------|------------------------------|
-----------------------------|------------------------------|
-----------------------------|------------------------------|
-----------------------------|------------------------------|
-----------------------------|------------------------------|

*Bass Pre-Chorus Riff* (if you care)
    Bm       F#m      D         A
---------------------------------------|
---------------------------------------|
--------------------5-5-5-5------------|
--7-7-7-7--2-2-2-2-----------5-5-5-5---|

*Chorus* (distorted)
   Bm    F#m    A      Em
------------------------------|
------------------------------|
--4-4-4-------2-2-2-2---------|
--4-4-4--4-4--2-2-2-2--2-2----|
--2-2-2--4-4--0-0-0-0--2-2----|
---------2-2-----------0-0----|

*Outro* (comes after the ending Verse section, notice
the change where the * is.)
--2--2--2--2--2--2-----|
--3--2--3--2--3--2-----|
--4--2--4--2--4--3*----|
--4--4--4--4--4--4-----|
--2--4--2--4--2--4-----|
-----2-----2-----2-----|

It's really a nifty rocker. Good Luck and Godspeed, Guitarist!
Добавлено: 17.04.2012
Другие материалы по этой песне:
  • Аккорды и текст

Страница создана 21.02.2012
http://primanota.ru/faint/typing-1974-2048-chords.htm
Привет, Гость.
Предлагаем пройти революционный курс по гитаре.
Подарок от PrimaNota.Ru, забирай!