PrimaNota.ru - самый крупный в мире бесплатный архив песенных текстов, аккордов, табулатур и нот


Faint - Posed To Death - текст песни, бас-таба, видео

Регистрация Запомнить меня
Войти через:  Facebook Google Twitter Vk Yandex Mail.ru

Faint - Posed To Death - текст песни, бас-таба, видео

Печатать
Просмотров: 163
*  stop note from ringing
~  let note ring
h  hammer-on

Intro 1 (Just to get the rythmn going, make up your own like this)
*play softly*
G-----------------------------------|
D-----------------------------------|
A-5---5-5-5-----5-------------------|
D---0-------0-0---0---0-0---0---0-0-|

Intro 2 / Chorus 1
G--------------------------------------|
D-------------7------------------------|
A-5-5-5-5-5-8---8--10-10-10-8-7-7-10-8-|x4
D--------------------------------------|

Verse 1
G-----------------------------|
D-----------------------8---7-|
A-5-5---8--8-----10-10--------|x6
D------------5------------7---|

Chorus 2
G--------------------------------------|
D-------------7------------------------|
A-5-5-5-5-5-8---8--10-10-10-8-7-7-10-8-|x2
D--------------------------------------|

Bridge 1
G----------------------------------|------------------------------|
D-----------7----------------------|---------7--------------------|
A-5--5--5h8---8h10--10--7h8-10-7h8-|-5---5h8---8h10--10--7h8-10-7-|
D----------------------------------|------------------------------|

Bridge 2 / Verse 2
G----------------------------------------------|
D----------------------------------------------|
A----------------------------------------------|
D-000000*0----000000*0----000000*0----000000*2-|

G--------------------------------------------------------|
D--------------------------------------------------------|
A--------------------------------------------------------|
D-000000*0----000000*0----000000*0----000000-0-0-0-0-0~~~|

Outro / Chorus 3
G--------------------------------------|
D-------------7------------------------|
A-5-5-5-5-5-8---8--10-10-10-8-7-7-10-8-|x4
D--------------------------------------|(Synth and Lead guitar play out...)


**If you feel like playing out with the synth and guitar..try this.**

Extended Outro
G-7---------------------------|-7-------------------------------|
D-----------7---------7-------|------------7---------7----------|
A---8-5---8---8-10--8---8-7-8-|----8-5---8---8-10--8---8-7-8-8~~|
D-----------------------------|---------------------------------|



Добавлено: 15.03.2012
Другие материалы по этой песне:
  • Аккорды и текст

Страница создана 08.03.2012
http://primanota.ru/faint/posed-to-death-chords.htm
Привет, Гость.
Предлагаем пройти революционный курс по гитаре.
Подарок от PrimaNota.Ru, забирай!