PrimaNota.ru - самый крупный в мире бесплатный архив песенных текстов, аккордов, табулатур и нот


Faint - I Disappear - текст песни, бас-таба, видео

Регистрация Запомнить меня
Войти через:  Facebook Google Twitter Vk Yandex Mail.ru

Faint - I Disappear - текст песни, бас-таба, видео

Печатать
Просмотров: 258
Faint - I Disappear

STANDARD TUNING(EADG)

~=Ring Note Out.
Intro
G----------------------------| (I'm pretty sure you play each one 2 times)
D----------------------------|
A--0-0-6-5-3-5-2-3-5-3-5-6---|
E----------------------------|

G-----------------------|
D-----------------------|
A-0-0-6-55-3-55-2-3-56--|
E-----------------------|

G-----------------------|
D-----------------------|
A-0--6-5-3--5--2-3--5-6-|
E-----------------------|
Small Break Before Verse:
G-------------------------------------------------------------------------| (once)
D-----777-------777-------777------7---5-------777-------777-------777----|
A-------------------------------------------------------------------------|
E--5~-----5-5~-------5-5~-----5-5----3-----5~-----5-5~-------5-5~-----5-5-|
Verse:
G----------------------------------------------------------------------------|
D-----777------777-------555------555-------333------333------222------222---|
A----------------------------------------------------------------------------|
E--5~-----5-5~-----5--3~-----3-3~------3-1~-----1-1~-----1-0~-----0-0~-----0-|
Break after Verse:
G-----------------------|
D-----------------------|
A-0-0-6-55-3-55-2-3-56--|
E-----------------------|
Verse:
G------------------------------------------------------------------------------|
D-----777------777-------555------555-------333------333------222------222-----|
A------------------------------------------------------------------------------|
E--5~-----5-5~-----5--3~-----3-3~------3-1~-----1-1~-----1-0~-----0-0~-----0---|
Pre-Chorus:
G-----------------------------------------|
D-----777-------555------333-------222----|
A-----------------------------------------|
E--5~-----5--3~-----3-1~------1-0~-----0--|
Break After Verse:
G-----------------------|
D-----------------------|
A-0-0-6-55-3-55-2-3-56--|
E-----------------------|
Next Break Before Verse:(when you hit the string open, try strumming down/up)
G----------------------------------|
D----------------------------------|
A-0~0--------0~0------2-3-5-3-5-6--|
E----------------------------------|
Verse:
G-----------------------------------------------------------------------------|
D-----777------777-------555------555-------333------333------222------222----|
A-----------------------------------------------------------------------------|
E--5~-----5-5~-----5--3~-----3-3~------3-1~-----1-1~-----1-0~-----0-0~-----0--|
Pre-Chorus
G-----------------------------------------|
D-----777-------555------333-------222----|
A-----------------------------------------|
E--5~-----5--3~-----3-1~------1-0~-----0--|
Bridge:
(hit this open note than mute it, i think you do it 4 times, there's an echo
heard after each time that sounds like a whip.)
G--------|
D--------|
A--------|
E---0~---|
Than you shut up for a little bit and wait for him to finish singing than play:
G----------------------------------------------| (once)
D----------------------------------------------|
A-0~0-----0~0-----0~0-----0~0-----2-3-5-3-5-6--|
E----------------------------------------------|
Than this after you play that:
G-----------------------------| (2 times)
D-----------------------------|
A-0~0-----0~0-----2-3-5-3-5-6-|
E-----------------------------|
Play this while he says "I Disappear"
G------------------------|
D------------------------|
A-0--6-5-3--5--2-3--5-6--|
E------------------------|
Than this thing again
G-----------------------|
D-----------------------|
A-0-0-6-55-3-55-2-3-56--|
E-----------------------|
and end on this note and let ring out untill song is over
G---------|
D---------|
A-0~~~----|
E---------|
Добавлено: 30.04.2012
Другие материалы по этой песне:

Страница создана 26.02.2012
http://primanota.ru/faint/i-disappear-chords.htm
Привет, Гость.
Предлагаем пройти революционный курс по гитаре.
Подарок от PrimaNota.Ru, забирай!