PrimaNota.ru - самый крупный в мире бесплатный архив песенных текстов, аккордов, табулатур и нот


Failure - Saturday Saviour - текст песни, таба, видео

Регистрация Запомнить меня
Войти через:  Facebook Google Twitter Vk Yandex Mail.ru

Failure - Saturday Saviour - текст песни, таба, видео

Печатать
Просмотров: 84
Авторы: Ken Andrews, Greg Edwards

Failure
"Saturday Saviour"
Fantastic Planet
Tabbed by: jrfox92
tuned 1/2 step down (Eb, Ab, Db, Gb, Bb, Eb)

Intro                                        0:36                                             0:43
eb|----------------------------------------------|------------------------------------------------|
Bb|----------------------------------------------|------------------------------------------------|
Gb|----------------------------------------------|------------------------------------------------|
Db|-4--4--4\2--2-2--2--2/7--7--7--7\5--5-5--5--5-|-4--4--4\2--2-2--2--2/7--7--7--7\5--5-5--5--5-5-|
Ab|-5--5--5\3--3-3--3--3/8--8--8--8\6--6-6--6--6-|-5--5--5\3--3-3--3--3/8--8--8--8\6--6-6--6--6-6-|
Eb|-5--5--5\3--3-3--3--3/8--8--8--8\6--6-6--6--6-|-5--5--5\3--3-3--3--3/8--8--8--8\6--6-6--6--6-6-|

                                              2nd Guitar
                                           eb|-------------10-8---------8------8------------------|
                                           Bb|---7-8--10-8----------/10---10-----10-8~------------|
                                           Gb|/7--------------------------------------------------|
                                           Db|----------------------------------------------------|
                                           Ab|----------------------------------------------------|
                                           Eb|----------------------------------------------------|


Verse                                                                                           1:00
eb|------------------------------------------------|------------------------------------------------|
Bb|------------------------------------------------|------------------------------------------------|
Gb|------------------------------------------------|------------------------------------------------|
Db|-4--4--4\2--2-2--2--2/7--7--7--7\5--5-5--5--5-5-|-4--4--4\2--2-2--2--2/7--7--7--7\5--5-5--5--5-5-|
Ab|-5--5--5\3--3-3--3--3/8--8--8--8\6--6-6--6--6-6-|-5--5--5\3--3-3--3--3/8--8--8--8\6--6-6--6--6-6-|
Eb|-5--5--5\3--3-3--3--3/8--8--8--8\6--6-6--6--6-6-|-5--5--5\3--3-3--3--3/8--8--8--8\6--6-6--6--6-6-|

                                                                                                1:15
eb|------------------------------------------------|------------------------------------------------|
Bb|------------------------------------------------|------------------------------------------------|
Gb|------------------------------------------------|------------------------------------------------|
Db|-4--4--4\2--2-2--2--2/7--7--7--7\5--5-5--5--5-5-|-4--4--4\2--2-2--2--2/7--7--7--7\5--5-5--5--5-5-|
Ab|-5--5--5\3--3-3--3--3/8--8--8--8\6--6-6--6--6-6-|-5--5--5\3--3-3--3--3/8--8--8--8\6--6-6--6--6-6-|
Eb|-5--5--5\3--3-3--3--3/8--8--8--8\6--6-6--6--6-6-|-5--5--5\3--3-3--3--3/8--8--8--8\6--6-6--6--6-6-|
                                                                                 (Double these notes)


Chorus (Distortion)    
1st Guitar                                                                                        1:31
eb|-------------------------------------------------|-------------------------------------------------|
Bb|-------------------------------------------------|-------------------------------------------------|
Gb|-2--2--2\0--0-0--0--0/5--5--5--5\3--3-3--3-3-3-3-|-2--2--2\0--0-0--0--0/5--5--5--5\3--3-3--3-3-3-3-|
Db|-4--4--4\2--2-2--2--2/7--7--7--7\5--5-5--5-5-5-5-|-4--4--4\2--2-2--2--2/7--7--7--7\5--5-5--5-5-5-5-|
Ab|-5--5--5\3--3-3--3--3/8--8--8--8\6--6-6--6-6-6-6-|-5--5--5\3--3-3--3--3/8--8--8--8\6--6-6--6-6-6-6-|
Eb|-5--5--5\3--3-3--3--3/8--8--8--8\6--6-6--6-6-6-6-|-5--5--5\3--3-3--3--3/8--8--8--8\6--6-6--6-6-6-6-|

2nd Guitar
eb|-------------------------------------------------|-------------------------------------------------|
Bb|-------------------------------------------------|-------------------------------------------------|
Gb|-2--2--2--------------5--5--5--5\3--3-3--3-3-3-3-|-2--2--2--------------5--5--5--5\3--3-3--3-3-3-3-|
Db|-0--0--0-5--5-5--5--5-3--3--3--3\1--1-1--1-1-1-1-|-0--0--0-5--5-5--5--5-3--3--3--3\1--1-1--1-1-1-1-|
Ab|---------3--3-3--3--3----------------------------|---------3--3-3--3--3----------------------------|
Eb|-------------------------------------------------|-------------------------------------------------|

1st Guitar                                                                                        1:47
eb|-------------------------------------------------|-------------------------------------------------|
Bb|-------------------------------------------------|-------------------------------------------------|
Gb|-2--2--2\0--0-0--0--0/5--5--5--5\3--3-3--3-3-3-3-|-2--2--2\0--0-0--0--0/5--5--5--5\3--3-3--3-3-3-3-|
Db|-4--4--4\2--2-2--2--2/7--7--7--7\5--5-5--5-5-5-5-|-4--4--4\2--2-2--2--2/7--7--7--7\5--5-5--5-5-5-5-|
Ab|-5--5--5\3--3-3--3--3/8--8--8--8\6--6-6--6-6-6-6-|-5--5--5\3--3-3--3--3/8--8--8--8\6--6-6--6-6-6-6-|
Eb|-5--5--5\3--3-3--3--3/8--8--8--8\6--6-6--6-6-6-6-|-5--5--5\3--3-3--3--3/8--8--8--8\6--6-6--6-6-6-6-|

2nd Guitar
eb|-------------------------------------------------|-------------------------------------------------|
Bb|-------------------------------------------------|-------------------------------------------------|
Gb|-2--2--2--------------5--5--5--5\3--3-3--3-3-3-3-|-2--2--2--------------5--5--5--5\3--3-3--3-3-3-3-|
Db|-0--0--0-5--5-5--5--5-3--3--3--3\1--1-1--1-1-1-1-|-0--0--0-5--5-5--5--5-3--3--3--3\1--1-1--1-1-1-1-|
Ab|---------3--3-3--3--3----------------------------|---------3--3-3--3--3----------------------------|
Eb|-------------------------------------------------|-------------------------------------------------|



Verse                                                                                           2:03
eb|------------------------------------------------|------------------------------------------------|
Bb|------------------------------------------------|------------------------------------------------|
Gb|------------------------------------------------|------------------------------------------------|
Db|-4--4--4\2--2-2--2--2/7--7--7--7\5--5-5--5--5-5-|-4--4--4\2--2-2--2--2/7--7--7--7\5--5-5--5--5-5-|
Ab|-5--5--5\3--3-3--3--3/8--8--8--8\6--6-6--6--6-6-|-5--5--5\3--3-3--3--3/8--8--8--8\6--6-6--6--6-6-|
Eb|-5--5--5\3--3-3--3--3/8--8--8--8\6--6-6--6--6-6-|-5--5--5\3--3-3--3--3/8--8--8--8\6--6-6--6--6-6-|

2nd Guitar         
eb|------------------------------------------------|--------------------------8-10-8----------------|
Bb|---7-8~--\7~--------\0--------------------------|------------------------------------------------|
Gb|/7----------------------------------------------|------------------------------------------------|
Db|------------------------------------------------|------------------------------------------------|
Ab|------------------------------------------------|------------------------------------------------|
Eb|------------------------------------------------|------------------------------------------------|

Verse                                                                                           2:19
eb|------------------------------------------------|------------------------------------------------|
Bb|------------------------------------------------|------------------------------------------------|
Gb|------------------------------------------------|------------------------------------------------|
Db|-4--4--4\2--2-2--2--2/7--7--7--7\5--5-5--5--5-5-|-4--4--4\2--2-2--2--2/7--7--7--7\5--5-5--5--5-5-|
Ab|-5--5--5\3--3-3--3--3/8--8--8--8\6--6-6--6--6-6-|-5--5--5\3--3-3--3--3/8--8--8--8\6--6-6--6--6-6-|
Eb|-5--5--5\3--3-3--3--3/8--8--8--8\6--6-6--6--6-6-|-5--5--5\3--3-3--3--3/8--8--8--8\6--6-6--6--6-6-|

2nd Guitar
eb|-------------------10-12-8----------------------|------------------------------------------------|
Bb|-------------------------------10-8-------------|----3--3-1---------------3--3-3-1---------------|
Gb|------------------------------------------------|----2--2-0---------------2--2-2-0---------------|
Db|------------------------------------------------|------------------------------------------------|
Ab|------------------------------------------------|------------------------------------------------|
Eb|------------------------------------------------|------------------------------------------------|



Chorus (Distortion)
1st Guitar                                                                                        2:35
eb|-------------------------------------------------|-------------------------------------------------|
Bb|-------------------------------------------------|-------------------------------------------------|
Gb|-2--2--2\0--0-0--0--0/5--5--5--5\3--3-3--3-3-3-3-|-2--2--2\0--0-0--0--0/5--5--5--5\3--3-3--3-3-3-3-|
Db|-4--4--4\2--2-2--2--2/7--7--7--7\5--5-5--5-5-5-5-|-4--4--4\2--2-2--2--2/7--7--7--7\5--5-5--5-5-5-5-|
Ab|-5--5--5\3--3-3--3--3/8--8--8--8\6--6-6--6-6-6-6-|-5--5--5\3--3-3--3--3/8--8--8--8\6--6-6--6-6-6-6-|
Eb|-5--5--5\3--3-3--3--3/8--8--8--8\6--6-6--6-6-6-6-|-5--5--5\3--3-3--3--3/8--8--8--8\6--6-6--6-6-6-6-|

2nd Guitar
eb|-------------------------------------------------|-------------------------------------------------|
Bb|-------------------------------------------------|-------------------------------------------------|
Gb|-2--2--2--------------5--5--5--5\3--3-3--3-3-3-3-|-2--2--2--------------5--5--5--5\3--3-3--3-3-3-3-|
Db|-0--0--0-5--5-5--5--5-3--3--3--3\1--1-1--1-1-1-1-|-0--0--0-5--5-5--5--5-3--3--3--3\1--1-1--1-1-1-1-|
Ab|---------3--3-3--3--3----------------------------|---------3--3-3--3--3----------------------------|
Eb|-------------------------------------------------|-------------------------------------------------|

1st Guitar                                                                                        2:51
eb|-------------------------------------------------|-------------------------------------------------|
Bb|-------------------------------------------------|-------------------------------------------------|
Gb|-2--2--2\0--0-0--0--0/5--5--5--5\3--3-3--3-3-3-3-|-2--2--2\0--0-0--0--0/5--5--5--5\3--3-3--3-3-3-3-|
Db|-4--4--4\2--2-2--2--2/7--7--7--7\5--5-5--5-5-5-5-|-4--4--4\2--2-2--2--2/7--7--7--7\5--5-5--5-5-5-5-|
Ab|-5--5--5\3--3-3--3--3/8--8--8--8\6--6-6--6-6-6-6-|-5--5--5\3--3-3--3--3/8--8--8--8\6--6-6--6-6-6-6-|
Eb|-5--5--5\3--3-3--3--3/8--8--8--8\6--6-6--6-6-6-6-|-5--5--5\3--3-3--3--3/8--8--8--8\6--6-6--6-6-6-6-|

2nd Guitar
eb|-------------------------------------------------|-------------------------------------------------|
Bb|-------------------------------------------------|-------------------------------------------------|
Gb|-2--2--2--------------5--5--5--5\3--3-3--3-3-3-3-|-2--2--2--------------5--5--5--5\3--3-3--3-3-3-3-|
Db|-0--0--0-5--5-5--5--5-3--3--3--3\1--1-1--1-1-1-1-|-0--0--0-5--5-5--5--5-3--3--3--3\1--1-1--1-1-1-1-|
Ab|---------3--3-3--3--3----------------------------|---------3--3-3--3--3----------------------------|
Eb|-------------------------------------------------|-------------------------------------------------|


Solo
1st Guitar                                                                                     3:07
eb|------------------------------------------------------------------------------------------------|
Bb|------------------------------------------------------------------------------------------------|
Gb|------------------------------------------------------------------------------------------------|
Db|-4----------------2----------------4--------------2---------------------------------------------|
Ab|-5----------------3----------------5--------------3---------------------------------------------|
Eb|-5----------------3----------------5--------------3---------------------------------------------|

2nd Guitar    (Sweep)
eb|-10-8--10------8--12--12--8----------10--8------------------------------------------------------|
Bb|-------------10---10--10----8---8-10--------------10p8--8\7--7\5--5\3---3--3--------------------|
Gb|--------------------------------------------------0---0----0----0----0--0--0--------------------|
Db|------------------------------------------------------------------------------------------------|
Ab|------------------------------------------------------------------------------------------------|
Eb|------------------------------------------------------------------------------------------------|

3rd Guitar
eb|-17---------------------------------------------------------------------------------------------|
Bb|--19-------------14-14-14-14-14-------------------14-14-14-14-14--------------------------------|
Gb|------------------12-12-12-12-12-12----------------12-12-12-12-12-12----------------------------|
Db|-------------------14-14-14-14-14-------------------14-14-14-14-14------------------------------|
Ab|------------------------------------------------------------------------------------------------|
Eb|------------------------------------------------------------------------------------------------|



Verse                                                                                           3:23
eb|------------------------------------------------|------------------------------------------------|
Bb|------------------------------------------------|------------------------------------------------|
Gb|------------------------------------------------|------------------------------------------------|
Db|-4--4--4\2--2-2--2--2/7--7--7--7\5--5-5--5--5-5-|-4--4--4\2--2-2--2--2/7--7--7--7\5--5-5--5--5-5-|
Ab|-5--5--5\3--3-3--3--3/8--8--8--8\6--6-6--6--6-6-|-5--5--5\3--3-3--3--3/8--8--8--8\6--6-6--6--6-6-|
Eb|-5--5--5\3--3-3--3--3/8--8--8--8\6--6-6--6--6-6-|-5--5--5\3--3-3--3--3/8--8--8--8\6--6-6--6--6-6-|

                                                 2nd Guitar         
                                                 eb|-------------------------12---------------------|
                                                 Bb|-------------------------------13---------------|
                                                 Gb|--------------------------------------14--------|
                                                 Db|------------------------------------------------|
                                                 Ab|------------------------------------------------|
                                                 Eb|------------------------------------------------|

Verse                                          3:31                                             3:39
eb|------------------------------------------------|------------------------------------------------|
Bb|------------------------------------------------|------------------------------------------------|
Gb|------------------------------------------------|------------------------------------------------|
Db|-4--4--4\2--2-2--2--2/7--7--7--7\5--5-5--5--5-5-|-4--4--4\2--2-2--2--2/7--7--7--7\5--5-5--5--5-5-|
Ab|-5--5--5\3--3-3--3--3/8--8--8--8\6--6-6--6--6-6-|-5--5--5\3--3-3--3--3/8--8--8--8\6--6-6--6--6-6-|
Eb|-5--5--5\3--3-3--3--3/8--8--8--8\6--6-6--6--6-6-|-5--5--5\3--3-3--3--3/8--8--8--8\6--6-6--6--6-6-|

2nd Guitar
eb|-12----------12-----------12----------------12------------12-----------12------------12----------|
Bb|--13-------------13-----------13----------------13------------13-----------13------------13------|
Gb|-------14------------14-----------14----------------14------------14-----------14------------14--|
Db|-------------------------------------------------------------------------------------------------|
Ab|-------------------------------------------------------------------------------------------------|
Eb|-------------------------------------------------------------------------------------------------|



Chorus (Distortion)
1st Guitar                                                                                        3:55
eb|-------------------------------------------------|-------------------------------------------------|
Bb|-------------------------------------------------|-------------------------------------------------|
Gb|-2--2--2\0--0-0--0--0/5--5--5--5\3--3-3--3-3-3-3-|-2--2--2\0--0-0--0--0/5--5--5--5\3--3-3--3-3-3-3-|
Db|-4--4--4\2--2-2--2--2/7--7--7--7\5--5-5--5-5-5-5-|-4--4--4\2--2-2--2--2/7--7--7--7\5--5-5--5-5-5-5-|
Ab|-5--5--5\3--3-3--3--3/8--8--8--8\6--6-6--6-6-6-6-|-5--5--5\3--3-3--3--3/8--8--8--8\6--6-6--6-6-6-6-|
Eb|-5--5--5\3--3-3--3--3/8--8--8--8\6--6-6--6-6-6-6-|-5--5--5\3--3-3--3--3/8--8--8--8\6--6-6--6-6-6-6-|

2nd Guitar
eb|-------------------------------------------------|-------------------------------------------------|
Bb|-------------------------------------------------|-------------------------------------------------|
Gb|-2--2--2--------------5--5--5--5\3--3-3--3-3-3-3-|-2--2--2--------------5--5--5--5\3--3-3--3-3-3-3-|
Db|-0--0--0-5--5-5--5--5-3--3--3--3\1--1-1--1-1-1-1-|-0--0--0-5--5-5--5--5-3--3--3--3\1--1-1--1-1-1-1-|
Ab|---------3--3-3--3--3----------------------------|---------3--3-3--3--3----------------------------|
Eb|-------------------------------------------------|-------------------------------------------------|

1st Guitar                                                                                        4:11
eb|-------------------------------------------------|-------------------------------------------------|
Bb|-------------------------------------------------|-------------------------------------------------|
Gb|-2--2--2\0--0-0--0--0/5--5--5--5\3--3-3--3-3-3-3-|-2--2--2\0--0-0--0--0/5--5--5--5\3--3-3--3-3-3-3-|
Db|-4--4--4\2--2-2--2--2/7--7--7--7\5--5-5--5-5-5-5-|-4--4--4\2--2-2--2--2/7--7--7--7\5--5-5--5-5-5-5-|
Ab|-5--5--5\3--3-3--3--3/8--8--8--8\6--6-6--6-6-6-6-|-5--5--5\3--3-3--3--3/8--8--8--8\6--6-6--6-6-6-6-|
Eb|-5--5--5\3--3-3--3--3/8--8--8--8\6--6-6--6-6-6-6-|-5--5--5\3--3-3--3--3/8--8--8--8\6--6-6--6-6-6-6-|

2nd Guitar
eb|-------------------------------------------------|-------------------------------------------------|
Bb|-------------------------------------------------|-------------------------------------------------|
Gb|-2--2--2--------------5--5--5--5\3--3-3--3-3-3-3-|-2--2--2--------------5--5--5--5\3--3-3--3-3-3-3-|
Db|-0--0--0-5--5-5--5--5-3--3--3--3\1--1-1--1-1-1-1-|-0--0--0-5--5-5--5--5-3--3--3--3\1--1-1--1-1-1-1-|
Ab|---------3--3-3--3--3----------------------------|---------3--3-3--3--3----------------------------|
Eb|-------------------------------------------------|-------------------------------------------------|


Outro
1st Guitar                                           4:24
eb|-------------------------------------------------------|
Bb|-------------------------------------------------------|
Gb|-2--2--2\0--0-0--0--0/5--5---5---5\3--3-3---3---3---2~-|
Db|-4--4--4\2--2-2--2--2/7--7---7---7\5--5-5---5---5---4~-|
Ab|-5--5--5\3--3-3--3--3/8--8---8---8\6--6-6---6---6---5~-|
Eb|-5--5--5\3--3-3--3--3/8--8---8---8\6--6-6---6---6---5~-|

2nd Guitar
eb|-------------------------------------------------------|
Bb|-------------------------------------------------------|
Gb|-2--2--2--------------5--5---5---5\3--3-3---3---3---2~-|
Db|-0--0--0-5--5-5--5--5-3--3---3---3\1--1-1---1---1---0~-|
Ab|---------3--3-3--3--3-------------------------------0--|
Eb|-------------------------------------------------------|

| /  slide up
| \  slide down
| h  hammer-on
| p  pull-off
| ~  vibrato
| < > harmonic
| x  Mute note
Добавлено: 18.05.2016
Другие материалы по этой песне:
  • Аккорды и текст

Страница создана 20.11.2013
http://primanota.ru/failure/saturday-saviour-chords.htm
Привет, Гость.
Предлагаем пройти революционный курс по гитаре.
Подарок от PrimaNota.Ru, забирай!