PrimaNota.ru - самый крупный в мире бесплатный архив песенных текстов, аккордов, табулатур и нот


Failure - Another Space Song - таба, бас-таба, видео

Регистрация Запомнить меня
Войти через:  Facebook Google Twitter Vk Yandex Mail.ru

Failure - Another Space Song - таба, бас-таба, видео

Печатать
Просмотров: 75
Авторы: Ken Andrews, Greg Edwards

-------------------------------------------------------------------------------
                             ANOTHER SPACE SONG - Failure
-------------------------------------------------------------------------------
Tabbed by: e_b
E-mail:

Tuning: standard

I'm not the best ear, but this is what I came up with, 
if anyone has a more accurate translation please share!

Rhythm throughout
   C#5                 A#5                 F5                  C#5
e|--------------------------------------------------------------------------------|
B|--------------------------------------------------------------------------------|
G|-----------------------------------------5-5--5-5--5-5--5-5---------------------|
D|-6-6--6-6--6-6--6-6--3-3--3-3--3-3--3-3--3-3--3-3--3-3--3-3--6-6--6-6--6-6--6-6-|
A|-4-4--4-4--4-4--4-4--1-1--1-1--1-1--1-1----------------------4-4--4-4--4-4--4-4-|
E|--------------------------------------------------------------------------------|

Intro guitar 2 (rapid strum)

e|-9-9-9-9-9-9-9-9-9-9-9-9-9-9-9-9-10-10-10-10-10-10-10-10-15b~--------------|
B|---------------------------------------------------------------------------|
G|---------------------------------------------------------------------------|
D|---------------------------------------------------------------------------|
A|---------------------------------------------------------------------------|
E|---------------------------------------------------------------------------|

Verse 1 & 3
e|------------18----------------18----------------18----------------18-----|
B|--------13-----18---------13-----18---------13-----18---------13-----18--|
G|-------------------------------------------------------------------------|
D|-----15----------------15----------------15----------------15------------| (4x)
A|--16----------------16----------------16----------------16---------------|
E|-------------------------------------------------------------------------|

Chorus
e|--------------------------18-------18-------18-----|
B|-----------------------------18-------18-------18--|
G|--17----17----17-18-17-15-------17-------17--------|
D|-----15----15--------------------------------------|
A|---------------------------------------------------|
E|---------------------------------------------------|

e|----------------------------------------------------|
B|------------------------------------16----16----16--|
G|--17----17----17-18-17-15-----17--------------------|
D|-----15----15-------------/18----18----18----18-----|
A|----------------------------------------------------|
E|----------------------------------------------------|

Verse 2
e|------------------------------------------------------------------------------------------|
B|-------13--------------------------------------------------------------------13----16--14-|
G|------------------------------------------------------------------------------------------|
D|----15--------------------------------------------------------------------15--------------| (2x)
A|-16--------------------------------------------------------------------16-----------------|
E|------------------------------------------------------------------------------------------|


e|--9---8---6------6---------------9---8---6---------|
B|------------6--9---9--6---6-----------------6---6--|
G|---------------------------------------------------|
D|---------------------------------------------------|
A|---------------------------------------------------|
E|---------------------------------------------------|

e|--9---8---6------6---------------9---8---6----/11----9----9--|
B|------------6--9---9--6---6-----------------6------9----9----|
G|-------------------------------------------------------------|
D|-------------------------------------------------------------|
A|-------------------------------------------------------------|
E|-------------------------------------------------------------|

Interlude:
e|-----------16----------16-18-16-------16--------|
B|-----------------------------------16----16-----|
G|--17-18-17----18-17-18----------18----------18--|
D|------------------------------------------------| (2x)
A|------------------------------------------------|
E|------------------------------------------------|


e|-----------16----------16-18-16-------16-------------------16--|
B|-----------------------------------16----16--------------------|
G|--17-18-17----18-17-18----------18----------18----17-18-17-----|
D|---------------------------------------------------------------|
A|---------------------------------------------------------------|
E|---------------------------------------------------------------|

Outro:
e|----------6-----------------------------------6-----------------|
B|--5h6-4h6---6-4h6--5h6-5---5---5------5h6-4h6---6-4h6--5h6-5----|
G|-------------------------8---8---8---------------------------8--|
D|----------------------------------------------------------------| (5x)
A|----------------------------------------------------------------|
E|----------------------------------------------------------------|


************************************

| /   slide up
| \   slide down
| h   hammer-on
| p   pull-off
| ~   vibrato
| +   harmonic
| x   Mute note
| b   Bend
| pb  Pre-bend
| br  Bend release
| pbr Pre-bend release
| brb Bend release bend

************************************
Добавлено: 15.12.2015
Другие материалы по этой песне:

Страница создана 10.07.2012
http://primanota.ru/failure/another-space-song-chords.htm
Привет, Гость.
Предлагаем пройти революционный курс по гитаре.
Подарок от PrimaNota.Ru, забирай!