PrimaNota.ru - самый крупный в мире бесплатный архив песенных текстов, аккордов, табулатур и нот


Fahnenflucht - Fwagner - таба, видео

Регистрация Запомнить меня
Войти через:  Facebook Google Twitter Vk Yandex Mail.ru

Fahnenflucht - Fwagner - таба, видео

Печатать
Просмотров: 156
Уроки эстрадного вокала в Санкт-Петербурге
Interpret: Fahnenflucht
Title: F. Wagner  
Autor: Harm Peters
eMail: tabs@tabs.elbacko.de
Homepage: http://tabs.elbacko.de

Intro/Verse 2x
 e|-------------------------------------------------------------------------|
 B|---2-----2-3-2-0----------------------------------2----2-3-2-0-----------|
 G|-----------------2-4-------------------------------------------2-4--6-4--|
 D|--4-----4-4----------2-2--2-4-2--2-4-6-7-6-4-6---4----4-4----------------|
 A|-------------------------------------------------------------------------|
 E|-------------------------------------------------------------------------|


Wenn das Intro zum 2. Mal anfängt kommt die zweite Gitarre dazu
Alles Palm Muted 2x
 e|-------------------------------------------------------------------------|
 B|-------------------------------------------------------------------------|
 G|------------77777777-----------------------------------------------------|
 D|---44444444-77777777-2222222222222222------------------------------------|
 A|---44444444-55555555-2222222222222222------------------------------------|
 E|---22222222----------0000000000000000------------------------------------|
      xxxxxxxxxxxxxxxxxxxxxxxxxxxxxxxxxx

Pre Verse 2x
Kein Palm Mute / Voll durchziehen ;)
 e|-------------------------------------------------------------------------|
 B|-------------------------------------------------------------------------|
 G|------------77777777-----------------------------------------------------|
 D|---44444444-77777777-2222222222222222------------------------------------|
 A|---44444444-55555555-2222222222222222------------------------------------|
 E|---22222222----------0000000000000000------------------------------------|


Verse 2x
Könnt ihr Palm Muted spielen oder nicht. Klingt beides gut...
 e|-------------------------------------------------------------------------|
 B|-------------------------------------------------------------------------|
 G|------------77777777-----------------------------------------------------|
 D|---44444444-77777777-2222222222222222------------------------------------|
 A|---44444444-55555555-2222222222222222------------------------------------|
 E|---22222222----------0000000000000000------------------------------------|

2x
 e|-------------------------------------------------------------------------|
 B|-------------------------------------------------------------------------|
 G|---------77777-----------------------------------------------------------|
 D|---44444-77777-22222-22222-----------------------------------------------|
 A|---44444-55555-22222-22222-----------------------------------------------|
 E|---22222-------00000-00000-----------------------------------------------|
         x     x     x     x

Chorus
 e|-------------------------------------------------------------------------|
 B|-------------------------------------------------------------------------|
 G|---------------------7-6-4-6-4-------------------------------------------|
 D|---77777-22222-44444-x-x-x-x-x-77777-22222-44-4-4-4-44444----------------|
 A|---77777-22222-44444-5-4-2-4-2-77777-22222-44-4-4-4-44444----------------|
 E|---55555-00000-22222-----------55555-00000-22-2-2-2-22222----------------|
                                                 xxxxx

 e|-------------------------------------------------------------------------|
 B|-------------------------------------------------------------------------|
 G|---------------------7-6-4-6-4-----------------6-7777--------------------|
 D|---77777-22222-44444-x-x-x-x-x-77777-22222-444-4-7777--------------------|
 A|---77777-22222-44444-5-4-2-4-2-77777-22222-444-4-5555--------------------|
 E|---55555-00000-22222-----------55555-00000-222---------------------------|
                                                x



Verse 2x
Alles Palm Muted
 e|-------------------------------------------------------------------------|
 B|-------------------------------------------------------------------------|
 G|------------77777777-----------------------------------------------------|
 D|---44444444-77777777-2222222222222222------------------------------------|
 A|---44444444-55555555-2222222222222222------------------------------------|
 E|---22222222----------0000000000000000------------------------------------|
      xxxxxxxxxxxxxxxxxxxxxxxxxxxxxxxxxx

Pre Chorus 2x
 e|-------------------------------------------------------------------------|
 B|---22--2---------00--0---00--0-------------------------------------------|
 G|---xx--x--77--7--xx--x---xx--x-------------------------------------------|
 D|---44--4--77--7--22--2---22--2-------------------------------------------|
 A|---44--4--55--5--22--2---22--2-------------------------------------------|
 E|---22--2---------00--0---00--0-------------------------------------------|

2. Gitarre spielt im Hintergrund das
Alles Palm Muted
 e|-------------------------------------------------------------------------|
 B|-------------------------------------------------------------------------|
 G|------------77777777-----------------------------------------------------|
 D|---44444444-77777777-2222222222222222------------------------------------|
 A|---44444444-55555555-2222222222222222------------------------------------|
 E|---22222222----------0000000000000000------------------------------------|
      xxxxxxxxxxxxxxxxxxxxxxxxxxxxxxxxxx         

Bridge
 e|-------------------------------------------------------------------------|
 B|-------------------------------------------------------------------------|
 G|-------7~------------------77777-----------------------------------------|
 D|---44--7~---22--2~---44444-77777-2222222222------------------------------|
 A|---44--5~---22--2~---44444-55555-2222222222------------------------------|
 E|---22-------00--0~---22222-------0000000000------------------------------|


Solo 2x
 e|-------------------------------------------------------------------------|
 B|-----------0-2-2/1----------0-2-2/1--------------------------------------|
 G|---2-2-2h4----------2-2-2h4----------1-1-1h2-4-2-1--1-1-1h2-4-2-1-2------|
 D|-------------------------------------------------------------------------|
 A|-------------------------------------------------------------------------|
 E|-------------------------------------------------------------------------|


Chorus
 e|-------------------------------------------------------------------------|
 B|-------------------------------------------------------------------------|
 G|---------------------7-6-4-6-4-------------------------------------------|
 D|---77777-22222-44444-x-x-x-x-x-77777-22222-44-4-4-4-44444----------------|
 A|---77777-22222-44444-5-4-2-4-2-77777-22222-44-4-4-4-44444----------------|
 E|---55555-00000-22222-----------55555-00000-22-2-2-2-22222----------------|
                                                 xxxxx

 e|-------------------------------------------------------------------------|
 B|-------------------------------------------------------------------------|
 G|---------------------7-6-4-6-4-----------------6-7777--------------------|
 D|---77777-22222-44444-x-x-x-x-x-77777-22222-444-4-7777--------------------|
 A|---77777-22222-44444-5-4-2-4-2-77777-22222-444-4-5555--------------------|
 E|---55555-00000-22222-----------55555-00000-222---------------------------|
                                                x

 Outro
 e|-------------------------------------------------------------------------|
 B|-------------------------------------------------------------------------|
 G|--------------------4x---------------------------------------------------|
 D|---44-44-44-44-44-2-----4------------------------------------------------|
 A|---44-44-44-44-44-2-----4------------------------------------------------|
 E|---22-22-22-22-22-0-----2------------------------------------------------|
      xx xx xx xx xx x


Compiled with TabPlayer :: http://www.simoneperandini.com/tabplayer.htm
Check www.fahnenflucht.com
Добавлено: 04.07.2012
Другие материалы по этой песне:

Страница создана 05.05.2012
http://primanota.ru/fahnenflucht/fwagner-chords.htm
Привет, Гость.
Предлагаем пройти революционный курс по гитаре.
Подарок от PrimaNota.Ru, забирай!