PrimaNota.ru - самый крупный в мире бесплатный архив песенных текстов, аккордов, табулатур и нот


Fahnenflucht - Es Geht Voran - таба, видео

Регистрация Запомнить меня
Войти через:  Facebook Google Twitter Vk Yandex Mail.ru

Fahnenflucht - Es Geht Voran - таба, видео

Печатать
Просмотров: 155
Interpret: Fahnenflucht
Title: Es geht voran
Autor: Harm Peters
eMail: elbacko@elbacko.de
Homepage: http://tabs.elbacko.de
 

[Intro] 1.Gitarre
 e|-------------------------------------------------------------------------|
 B|-------------------------------------------------------------------------|
 G|---------------------------------6-4-3-----------------------------------|
 D|--666-9-8-9--666-9-8-9--444-9-8-9-----4--666-9-8-9--666-9-8-9--444-9-8-9-|       
 A|-------------------------------------------------------------------------|
 E|-------------------------------------------------------------------------|

[Intro] 1.Gitarre
 e|-------------------------------------------------------------------------|
 B|-------------------------------------------------------------------------|
 G|-------------------------------------------------------------------------|
 D|--6-4-3------9~-8-6-4-6-4-3-----9~-8-6-4-6-4-3---------------------------|
 A|--------4-6~-----------------6~----------------6~------------------------|
 E|-------------------------------------------------------------------------|

[Intro] 2.Gitarre 2x
 e|-------------------------------------------------------------------------|
 B|-------------------------------------------------------------------------|
 G|----------------------44444444-------------------------------------------|
 D|--66666666--22222222--44444444--44444444---------------------------------|
 A|--66666666--22222222--22222222--44444444---------------------------------|
 E|--44444444--00000000------------22222222---------------------------------|

[Intro] 2.Gitarre 2x
 e|-------------------------------------------------------------------------|
 B|-------------------------------------------------------------------------|
 G|----------------------4~~~~~~~-------------------------------------------|
 D|--6~~~~~~~--2~~~~~~~--4~~~~~~~--4~~~~~~~---------------------------------|
 A|--6~~~~~~~--2~~~~~~~--2~~~~~~~--4~~~~~~~---------------------------------|
 E|--4~~~~~~~--0~~~~~~~------------2~~~~~~~---------------------------------|

[Verse] 4x
 e|-------------------------------------------------------------------------|
 B|-------------------------------------------------------------------------|
 G|----------------------44444444-------------------------------------------|
 D|--66666666--22222222--44444444--44444444---------------------------------|
 A|--66666666--22222222--22222222--44444444---------------------------------|
 E|--44444444--00000000------------22222222---------------------------------|


[Verse 2] 2x
 e|-------------------------------------------------------------------------|
 B|-------------------------------------------------------------------------|
 G|--------------44-4-------------------------------------------------------|
 D|--66-6--22-2--44-4--44-4444----------------------------------------------|
 A|--66-6--22-2--22-2--44-4444----------------------------------------------|
 E|--44-4--00-0--------22-2222----------------------------------------------|
        |     |     |
        |     |     |
 von unten nach oben anschlagen


[Verse 2] 2x
 e|-------------------------------------------------------------------------|
 B|-------------------------------------------------------------------------|
 G|----------------------44444444-------------------------------------------|
 D|--66666666--22222222--44444444--44444444---------------------------------|
 A|--66666666--22222222--22222222--44444444---------------------------------|
 E|--44444444--00000000------------22222222---------------------------------|


[Riff]
 e|-------------------------------------------------------------------------|
 B|-------------------------------------------------------------------------|
 G|-------------------------------------------------------------------------|
 D|-----9~-8-6-4-6-4-3-----9~-8-6-4-6-4-3-----------------------------------|
 A|--6~-----------------6~----------------66666-----------------------------|
 E|-------------------------------------------------------------------------| vv


[Chorus]
 e|-------------------------------------------------------------------------|
 B|-------------------------------------------------------------------------|
 G|--44444444----------------------9999-88-66--44444444---------------------|
 D|--44444444--44444444--66666666--9999-88-66--44444444--44444444--66666666-|
 A|--22222222--44444444--66666666--7777-66-44--22222222--44444444--66666666-|
 E|------------22222222--44444444------------------------22222222--44444444-|


[Chorus Continue]
 e|-------------------------------------------------------------------------|
 B|-------------------------------------------------------------------------|
 G|--9999-8-6---------------------------------------------------------------|
 D|--9999-8-6---------------------------------------------------------------|
 A|--7777-6-4---------------------------------------------------------------|
 E|-------------------------------------------------------------------------|



[Verse] 2x Palm Muted
 e|-------------------------------------------------------------------------|
 B|-------------------------------------------------------------------------|
 G|----------------------44444444-------------------------------------------|
 D|--66666666--22222222--44444444--44444444---------------------------------|
 A|--66666666--22222222--22222222--44444444---------------------------------|
 E|--44444444--00000000------------22222222---------------------------------|
     xxxxxxxxxxxxxxxxxxxxxxxxxxxxxxxxxxxxxx

[Verse] 
 e|-------------------------------------------------------------------------|
 B|-------------------------------------------------------------------------|
 G|----------------------44444444-------------------------------------------|
 D|--66666666--22222222--44444444--44444444---------------------------------|
 A|--66666666--22222222--22222222--44444444---------------------------------|
 E|--44444444--00000000------------22222222---------------------------------|


[Fill]
 e|-------------------------------------------------------------------------|
 B|-------------------------------------------------------------------------|
 G|---------------------------------6-4-3-----------------------------------|
 D|--666-9-8-9--666-9-8-9--444-9-8-9-----4--666-9-8-9--666-9-8-9--444-9-8-9-|
 A|-------------------------------------------------------------------------|
 E|-------------------------------------------------------------------------|


[Fill]
 e|-------------------------------------------------------------------------|
 B|-------------------------------------------------------------------------|
 G|--6-4-3------------------------------------------------------------------|
 D|--------4-66666----------------------------------------------------------|
 A|-------------------------------------------------------------------------|
 E|-------------------------------------------------------------------------|


[Chorus]
 e|-------------------------------------------------------------------------|
 B|-------------------------------------------------------------------------|
 G|--44444444----------------------9999-88-66--44444444---------------------|
 D|--44444444--44444444--66666666--9999-88-66--44444444--44444444--66666666-|
 A|--22222222--44444444--66666666--7777-66-44--22222222--44444444--66666666-|
 E|------------22222222--44444444------------------------22222222--44444444-|


[Chorus Continue]
 e|-------------------------------------------------------------------------|
 B|-------------------------------------------------------------------------|
 G|--9999-8-6-4-------------------------------------------------------------|
 D|--9999-8-6-4-------------------------------------------------------------|
 A|--7777-6-4-2-------------------------------------------------------------|
 E|-------------------------------------------------------------------------|



Compiled with TabPlayer :: http://www.simoneperandini.com/tabplayer.htm
Check this: www.fahnenflucht.com
Добавлено: 30.03.2012
Другие материалы по этой песне:
  • Аккорды и текст

Страница создана 30.03.2012
http://primanota.ru/fahnenflucht/es-geht-voran-chords.htm
Привет, Гость.
Предлагаем пройти революционный курс по гитаре.
Подарок от PrimaNota.Ru, забирай!