PrimaNota.ru - самый крупный в мире бесплатный архив песенных текстов, аккордов, табулатур и нот


Fades Away - Who Ive Become - таба, видео

Регистрация Запомнить меня
Войти через:  Facebook Google Twitter Vk Yandex Mail.ru

Fades Away - Who Ive Become - таба, видео

Печатать
Просмотров: 117
----------------------------------------------------------------------
                     Who I've Become - Fades Away
----------------------------------------------------------------------

Tabbed by: Zaith             Tuning: Drop C               Key: F minor


0:00 Intro (x2)
d|---------------------------------|---------------------------------|
A|-----------------3-3-3-1-1-1-----|---------------------3-3-1-1-----|
F|-0-0-0-3-3-3-2-2-------------0-0-|-0-0-0-0-0-0-2-2-3-3-------------|
C|---------------------------------|-----------------------------3-3-|
G|---------------------------------|---------------------------------|
C|---------------------------------|---------------------------------|
PM:==================================================================


0:10 Verse 1a (x2)
d|---------------------------------|---------------------------------|
A|---------------------------------|---------------------------------|
F|-0-0-0-2-2-2-3-------0-0-0-2-2-3-|-------0-0-0-2-----------3-3-3-2-|
C|---------------------------------|-3-3-3-------------1-1-1---------|
G|---------------------------------|---------------------------------|
C|---------------------------------|---------------------------------|
PM:==================================================================


0:20 Verse 1b   Guitar 1 (x2)
d|---------------------------------|---------------------------------|
A|---------------------------------|---------------------------------|
F|-0-0-0-2-2-2-3-------0-0-0-2-2-3-|-------0-0-0-2-----------3-3-3-2-|
C|---------------------------------|-3-3-3-------------1-1-1---------|
G|---------------------------------|---------------------------------|
C|---------------------------------|---------------------------------|
 |PM:================================================================|
 |              Guitar 2 (x2)                                        |
d|---------------------------------|---------------------------------|
A|---------------------------------|---------------------------------|
F|---------------------------------|---------------------------------|
C|-5-------------------------------|-3-----------------1-------------|
G|-5-------------------------------|-3-----------------1-------------|
C|-5-------------------------------|-3-----------------1-------------|


0:30 Pre-Chorus Guitar 1
d|------------13-------------------|------------13-------------------|
A|------15-13----15----13h15p13----|------15-13----15----13h15p15----|
F|-0-0-0--0--0--0--0-0----------0--|-0-0-0--0--0--0--0-0----------0--|
C|---------------------------------|---------------------------------|
G|---------------------------------|---------------------------------|
C|---------------------------------|---------------------------------|
PM:=====  =  =  =  = =          =    = = =  =  =  =  = =          =  |
 |              Guitar 2                                             |
d|---------------------------------|---------------------------------|
A|---------------------------------|---------------------------------|
F|---------------------------------|---------------------------------|
C|-5---------------8---------------|-3-------------------------------|
G|-5---------------8---------------|-3-------------------------------|
C|-5---------------8---------------|-3-------------------------------|
0:35 Chorus 1 (x2)
d|---------------------------------|---------------------------------|
A|---------------------------------|---------------------------------|
F|---------------------------------|-------3-3-3-------3-3-3-----3-3-|
C|-5-5-5-7-7-7-5-5-5-7-7-7-5-5-7-7-|-1-1-1-------1-1-1-------1-1-----|
G|-5-5-5-------5-5-5-------5-5-----|-1-1-1-------1-1-1-------1-1-----|
C|-5-5-5-------5-5-5-------5-5-----|-1-1-1-------1-1-1-------1-1-----|
 |                                                                   |
d|---------------------------------|---------------------------------|
A|---------------------------------|---------------------------------|
F|---------------------------------|---------------------------------|
C|-5-5-5-7-7-7-5-5-5-7-7-7-5-5-7-7-|-3-3-3-3-3-3-1~~~----------------|
G|-5-5-5-------5-5-5-------5-5-----|-3-3-3-3-3-3-1~~~----------------|
C|-5-5-5-------5-5-5-------5-5-----|-3-3-3-3-3-3-1~~~----------------|

Repeat Intro through Chorus (0:55-1:55)


1:55 Bridge (x4)
d|---------------------------------|---------------------------------|
A|---------------------------------|---------------------------------|
F|---------------------------------|---------------------------------|
C|---------------------------------|-------------------------1~~~----|
G|-1-0---------------------0-----0-|-1-0---------------------1~~~----|
C|-----0-3-5-0-3-0-3-5-0-1---1-3---|-----0-3-5-0-3-0-3-5-0-1-1~~~----|


2:14 Acoustic Chorus (x2)
d|---------------------------------|---------------------------------|
A|---------------------------------|-4---4-4-4-4-4---4-4-4-4-4---4-4-|
F|-7---7-7-7-7-7---7-7-7-7-7---7-7-|-3---3-3-3-3-3---3-3-3-3-3---3-3-|
C|-5---5-5-5-5-5---5-5-5-5-5---5-5-|-1---1-1-1-1-1---1-1-1-1-1---1-1-|
G|-5---5-5-5-5-5---5-5-5-5-5---5-5-|-1---1-1-1-1-1---1-1-1-1-1---1-1-|
C|-5---5-5-5-5-5---5-5-5-5-5---5-5-|-1---1-1-1-1-1---1-1-1-1-1---1-1-|

d|---------------------------------|---------------------------------|
A|---------------------------------|---------------------------------|
F|-7---7-7-7-7-7---7-7-7-7-7---7-7-|-5---5-5-5-5-8---8-8-8-8-8---8-8-|
C|-5---5-5-5-5-5---5-5-5-5-5---5-5-|-3---3-3-3-3-6---6-6-6-6-6---6-6-|
G|-5---5-5-5-5-5---5-5-5-5-5---5-5-|-3---3-3-3-3-6---6-6-6-6-6---6-6-|
C|-5---5-5-5-5-5---5-5-5-5-5---5-5-|-3---3-3-3-3-6---6-6-6-6-6---6-6-|


2:35 Final Chorus (x2)
d|---------------------------------|---------------------------------|
A|---------------------------------|---------------------------------|
F|---------------------------------|-------3-3-3-------3-3-3-----3-3-|
C|-5-5-5-7-7-7-5-5-5-7-7-7-5-5-7-7-|-1-1-1-------1-1-1-------1-1-----|
G|-5-5-5-------5-5-5-------5-5-----|-1-1-1-------1-1-1-------1-1-----|
C|-5-5-5-------5-5-5-------5-5-----|-1-1-1-------1-1-1-------1-1-----|
 |                                                                   |
d|---------------------------------|---------------------------------|
A|---------------------------------|---------------------------------|
F|---------------------------------|---------------------------------|
C|-5-5-5-7-7-7-5-5-5-7-7-7-5-5-7-7-|-3-3-3-3-3-3-1~~~----------------|
G|-5-5-5-------5-5-5-------5-5-----|-3-3-3-3-3-3-1~~~----------------|
C|-5-5-5-------5-5-5-------5-5-----|-3-3-3-3-3-3-1~~~----------------|

  End with this on the second play |---------------------------------|
  of the chorus (2:52)             |---------------------------------|
                                   |---------------------------------|
                                   |-3-----3-----1~~~----------------|
                                   |-3-----3-----1~~~----------------|
                                   |-3-----3-----1~~~----------------|
Добавлено: 20.08.2013
Другие материалы по этой песне:
  • Аккорды и текст

Страница создана 20.08.2013
http://primanota.ru/fades-away/who-ive-become-chords.htm
Привет, Гость.
Предлагаем пройти революционный курс по гитаре.
Подарок от PrimaNota.Ru, забирай!