PrimaNota.ru - самый крупный в мире бесплатный архив песенных текстов, аккордов, табулатур и нот


Fades Away - My Fall - таба, видео

Регистрация Запомнить меня
Войти через:  Facebook Google Twitter Vk Yandex Mail.ru

Fades Away - My Fall - таба, видео

Печатать
Просмотров: 161
----------------------------------------------------------------------------------
                               My Fall - Fades Away
----------------------------------------------------------------------------------
Tabbed by: Zaith

Tuning: Drop C


0:12 Intro
d|---------------------------------------|---------------------------------------|
A|---------------------------------------|---------------------------------------|
F|---------------------------------------|--5-------------------------------5-5--|
C|--2------------------------------2-2---|--5-------------------------------5-5--|
G|--2------------------------------2-2---|--3-------------------------------3-3--|
C|--2------------------------------2-2---|---------------------------------------|
PM:                                ===                                      ===

d|---------------------------------------|---------------------------------------|
A|---------------------------------------|---------------------------------------|
F|---------------------------------------|--5------------------------------------|
C|--2------------------------------2-2---|--5------------------------------------|
G|--2------------------------------2-2---|--3------------------------------------|
C|--2------------------------------2-2---|---------------------------------------|
PM:                                ===     

0:35 Verse 1 (x2)
d|---------------------------------------|---------------------------------------|
A|--------------------------------0------|---------------------------------------|
F|---------------------------------------|--5-5---------------5-5---5-5----------|
C|--2-2---5-4-2-0-4---2-2---5-4-2---4----|--5-5---------------5-5---5-5---0------|
G|--2-2---------------2-2----------------|--3-3---3-5-7-5-----3-3---3-3---0------|
C|--2-2---------------2-2----------------|--------------------------------0------|

d|---------------------------------------|---------------------------------------|
A|--------------------------------0------|---------------------------------------|
F|---------------------------------------|--5-5---------------5-5----------------|
C|--2-2---5-4-2-0-4---2-2---5-4-2---4----|--5-5---------------5-5----------------|
G|--2-2---------------2-2----------------|--3-3---3-5-7-5-----3-3---3-5-7-5------|
C|--2-2---------------2-2----------------|--------------------------------0------|

0:59 Chorus 1
d|---------------------------------------|---------------------------------------|
A|---------------------------------------|---------------------------------------|
F|---------------------------------------|--5-------------------------------5-5--|
C|--2------------------------------2-2---|--5-------------------------------5-5--|
G|--2------------------------------2-2---|--3-------------------------------3-3--|
C|--2------------------------------2-2---|---------------------------------------|
PM:                                ===                                      ===

d|---------------------------------------|---------------------------------------|
A|---------------------------------------|---------------------------------------|
F|---------------------------------------|--5------------------------------------|
C|--2------------------------------2-2---|--5------------------------------------|
G|--2------------------------------2-2---|--3------------------------------------|
C|--2------------------------------2-2---|---------------------------------------|
PM:                                ===     

1:22 Verse 2 (x2)
d|---------------------------------------|---------------------------------------|
A|--------------------------------0------|---------------------------------------|
F|---------------------------------------|--5-5---------------5-5---5-5----------|
C|--2-2---5-4-2-0-4---2-2---5-4-2---4----|--5-5---------------5-5---5-5---0------|
G|--2-2---------------2-2----------------|--3-3---3-5-7-5-----3-3---3-3---0------|
C|--2-2---------------2-2----------------|--------------------------------0------|

d|---------------------------------------|---------------------------------------|
A|--------------------------------0------|---------------------------------------|
F|---------------------------------------|--5-5---------------5-5----------------|
C|--2-2---5-4-2-0-4---2-2---5-4-2---4----|--5-5---------------5-5----------------|
G|--2-2---------------2-2----------------|--3-3---3-5-7-5-----3-3---3-5-7-5------|
C|--2-2---------------2-2----------------|--------------------------------0------|

1:46 Chorus 2
d|---------------------------------------|---------------------------------------|
A|---------------------------------------|---------------------------------------|
F|---------------------------------------|--5-------------------------------5-5--|
C|--2------------------------------2-2---|--5-------------------------------5-5--|
G|--2------------------------------2-2---|--3-------------------------------3-3--|
C|--2------------------------------2-2---|---------------------------------------|
PM:                                ===                                      ===

d|---------------------------------------|---------------------------------------|
A|---------------------------------------|---------------------------------------|
F|---------------------------------------|--5------------------------------------|
C|--2------------------------------2-2---|--5------------------------------------|
G|--2------------------------------2-2---|--3------------------------------------|
C|--2------------------------------2-2---|---------------------------------------|
PM:                                ===     

2:23 Bridge A (x2)
d|---------------------------------------|---------------------------------------|
A|---------------------------------------|---------------------------------------|
F|-------------------5-5-5~~~5--5-5~~~-5-|---------------------------------------|
C|--2~~~--2--2-2~~~2-3-3-3~~~3--3-3~~~-3-|-7-7-7~~~7--7-7~~~7-7-7-7~~~7--7-7~~~--|
G|--2~~~--2--2-2~~~2-3-3-3~~~3--3-3~~~-3-|-7-7-7~~~7--7-7~~~7-7-7-7~~~7--7-7~~~--|
C|--2~~~--2--2-2~~~2---------------------|-7-7-7~~~7--7-7~~~7-7-7-7~~~7--7-7~~~--|

2:47 Bridge B (Acoustic/Clean Chord Progession (Listen for strumming Pattern))
d|--0------------------------------------|--3------------------------------------|
A|--0------------------------------------|--5------------------------------------|
F|--0------------------------------------|--5------------------------------------|
C|--2------------------------------------|--5------------------------------------|
G|--2------------------------------------|--3------------------------------------|
C|--2------------------------------------|---------------------------------------|

d|--0------------------------------------|--3------------------------------------|
A|--0------------------------------------|--5------------------------------------|
F|--0------------------------------------|--5------------------------------------|
C|--2------------------------------------|--5-----------------------------2-2--2-|
G|--2------------------------------------|--3-----------------------------2-2--2-|
C|--2------------------------------------|--------------------------------2-2--2-|
PM:                                                                     > ======
                                                                 Distortion starts
3:09 Final Chorus
d|---------------------------------------|---------------------------------------|
A|---------------------------------------|---------------------------------------|
F|---------------------------------------|--5--55-5---55-5--55-5---55-5--55-5~~~-|
C|--2--22-2---22-2--22-2---22-2--22-2-22-|--5--55-5---55-5--55-5---55-5--55-5~~~-|
G|--2--22-2---22-2--22-2---22-2--22-2-22-|--3--33-3---33-3--33-3---33-3--33-3~~~-|
C|--2--22-2---22-2--22-2---22-2--22-2-22-|---------------------------------------|
PM:    ==     ==    ==     ==    ==   ==       ==     ==    ==     ==    == 

d|---------------------------------------|---------------------------------------|
A|---------------------------------------|---------------------------------------|
F|---------------------------------------|--5--55-5---55-5--55-5---55-5~~5~~5~~~-|
C|--2--22-2---22-2--22-2---22-2--22-2-22-|--5--55-5---55-5--55-5---55-5~~5~~5~~~-|
G|--2--22-2---22-2--22-2---22-2--22-2-22-|--3--33-3---33-3--33-3---33-3~~3~~3~~~-|
C|--2--22-2---22-2--22-2---22-2--22-2-22-|---------------------------------------|
PM:    ==     ==    ==     ==    ==   ==       ==     ==    ==     ==    

d|---------------------------------------|---------------------------------------|
A|---------------------------------------|---------------------------------------|
F|---------------------------------------|---------------------------------------|
C|--2------------------------------------|---------------------------------------|
G|--2------------------------------------|---------------------------------------|
C|--2------------------------------------|---------------------------------------|


************************************

| ~   Let it Ring
| PM  Palm Mute

************************************
Добавлено: 25.07.2013
Другие материалы по этой песне:
  • Аккорды и текст

Страница создана 25.07.2013
http://primanota.ru/fades-away/my-fall-chords.htm
Привет, Гость.
Предлагаем пройти революционный курс по гитаре.
Подарок от PrimaNota.Ru, забирай!