PrimaNota.ru - самый крупный в мире бесплатный архив песенных текстов, аккордов, табулатур и нот


Fades Away - Inhumane - таба, видео

Регистрация Запомнить меня
Войти через:  Facebook Google Twitter Vk Yandex Mail.ru

Fades Away - Inhumane - таба, видео

Печатать
Просмотров: 154
----------------------------------------------------------------------------------
                               Inhumane - Fades Away
----------------------------------------------------------------------------------
Tabbed by: Zaith

Tuning: Drop C


Verse 1 (x2)
d|---------------------------------------|---------------------------------------|
A|---------------------------------------|---------------------------------------|
F|---------------------------------------|---------------------------------------|
C|-0-0-0--0-0---0-0-0-0-0-0--5-5-5-5p4-4-|-0-0-0--0-0---1-1-1-1-1-1--5-5-5-5h7-7-|
G|-0-0-0--0-0---0-0-0-0-0-0--------------|-0-0-0--0-0---1-1-1-1-1-1--------------|
C|-0-0-0--0-0---0-0-0-0-0-0--------------|-0-0-0--0-0---1-1-1-1-1-1--------------|

Pre-Chorus
d|---------------------------------------|
A|---------------------------------------|
F|-------------------5-------------------|
C|-0-----------------5-------------------|
G|-0-----------------3-------------------|
C|-0-------------------------------------|

Chorus (x2)
d|---------------------------------------|---------------------------------------|
A|---------------------------------------|---------------------------------------|
F|---------------------------------------|---------------------------------------|
C|-------------5-5-8-8-7-7--5-5-5---8--3-|-------------5-5-8-8-7-7--5-5-5--1-1-1-|
G|-000-000-0-0--------------5-5-5---8--3-|-000-000-0-0--------------5-5-5--1-1-1-|
C|-000-000-0-0--------------5-5-5---8--3-|-000-000-0-0--------------5-5-5--1-1-1-|
PM:=== ===                                 === ===

Post-Chorus
d|---------------------------------------|
A|---------------------------------------|
F|---------------------------------------|
C|-0-------------------------------------|
G|-0-------------------------------------|
C|-0-------------------------------------|

Verse 2 (x2)
d|---------------------------------------|---------------------------------------|
A|---------------------------------------|---------------------------------------|
F|---------------------------------------|---------------------------------------|
C|-0-0-0--0-0---0-0-0-0-0-0--5-5-5-5p4-4-|-0-0-0--0-0---1-1-1-1-1-1--5-5-5-5h7-7-|
G|-0-0-0--0-0---0-0-0-0-0-0--------------|-0-0-0--0-0---1-1-1-1-1-1--------------|
C|-0-0-0--0-0---0-0-0-0-0-0--------------|-0-0-0--0-0---1-1-1-1-1-1--------------|

Pre-Chorus
d|---------------------------------------|
A|---------------------------------------|
F|-------------------5-------------------|
C|-0-----------------5-------------------|
G|-0-----------------3-------------------|
C|-0-------------------------------------|

Chorus 2 (x2)
d|---------------------------------------|---------------------------------------|
A|---------------------------------------|---------------------------------------|
F|---------------------------------------|---------------------------------------|
C|-------------5-5-8-8-7-7--5-5-5---8--3-|-------------5-5-8-8-7-7--5-5-5--1-1-1-|
G|-000-000-0-0--------------5-5-5---8--3-|-000-000-0-0--------------5-5-5--1-1-1-|
C|-000-000-0-0--------------5-5-5---8--3-|-000-000-0-0--------------5-5-5--1-1-1-|
PM:=== ===                                 === ===

Bridge   (x2)
d|---------------------------------------|---------------------------------------|
A|---------------------------------------|---------------------------------------|
F|--5-5-5-5-5-5--------------------------|--5-5-5-5-5-5-----------------3~~~~~---|
C|--5-5-5-5-5-5-0-----3~~~~----1~~~~-----|--5-5-5-5-5-5-0---1-1-1-1-1-1-3~~~~~---|
G|--3-3-3-3-3-3-0-----3~~~~----1~~~~-----|--3-3-3-3-3-3-0---1-1-1-1-1-1-1~~~~~---|
C|--------------0-----3~~~~----1~~~~-----|--------------0---1-1-1-1-1-1----------|
PM:             =                                       =   ===========

Final Chorus (x4)
d|---------------------------------------|---------------------------------------|
A|---------------------------------------|---------------------------------------|
F|---------------------------------------|---------------------------------------|
C|-------------5-5-8-8-7-7--5-5-5---8--3-|-------------5-5-8-8-7-7--5-5-5--1-1-1-|
G|-000-000-0-0--------------5-5-5---8--3-|-000-000-0-0--------------5-5-5--1-1-1-|
C|-000-000-0-0--------------5-5-5---8--3-|-000-000-0-0--------------5-5-5--1-1-1-|
PM:=== ===                                 === === 



************************************

| h   hammer-on
| p   pull-off
| ~   let ring

************************************
Добавлено: 06.08.2013
Другие материалы по этой песне:
  • Аккорды и текст

Страница создана 06.08.2013
http://primanota.ru/fades-away/inhumane-chords.htm
Привет, Гость.
Предлагаем пройти революционный курс по гитаре.
Подарок от PrimaNota.Ru, забирай!