PrimaNota.ru - самый крупный в мире бесплатный архив песенных текстов, аккордов, табулатур и нот


Fades Away - Bury Me Alive - таба, видео

Регистрация Запомнить меня
Войти через:  Facebook Google Twitter Vk Yandex Mail.ru

Fades Away - Bury Me Alive - таба, видео

Печатать
Просмотров: 174
Уроки эстрадного вокала в Санкт-Петербурге
-------------------------------------------------------------------------------
                           Bury Me Alive - Fades Away
-------------------------------------------------------------------------------
Tabbed by: Zaith

Tuning: Drop C


Intro
d|---------------------------------------|---------------------------------------|
A|---------------------------------------|---------------------------------------|
F|---------------------------------------|---------------------------------------|
C|-0--------------------------------0-0--|-8-----------8-8---5--------------5-5--|
G|-0--------------------------------0-0--|-8-----------8-8---5--------------5-5--|
C|-0--------------------------------0-0--|-8-----------8-8---5--------------5-5--|
PM:                                 ===                ===                  ===

Verse 1                                  
d|---------------------------------------|---------------------------------------|
A|---------------------------------------|---------------------------------------|
F|---------------------------------------|---------------------------------------|
C|-0-0-0-0-0-0-0------0-0-0-0-0-0-0------|-0-0-0-0-0-0-0------0-0-0-0-0-0-0------|
G|-0-0-0-0-0-0-0------0-0-0-0-0-0-0------|-0-0-0-0-0-0-0------0-0-0-0-0-0-0------|
C|-0-0-0-0-0-0-0------0-0-0-0-0-0-0------|-0-0-0-0-0-0-0------0-0-0-0-0-0-0------|
PM:=============      =============        =============      =============

d|---------------------------------------|---------------------------------------|
A|---------------------------------------|---------------------------------------|
F|---------------------------------------|---------------------------------------|
C|-8-8-8-8-8-8-8------8-8-8-8-8-8-8------|-5-5-5-5-5-5-5------5-5-5-5-5-5-5------|
G|-8-8-8-8-8-8-8------8-8-8-8-8-8-8------|-5-5-5-5-5-5-5------5-5-5-5-5-5-5------|
C|-8-8-8-8-8-8-8------8-8-8-8-8-8-8------|-5-5-5-5-5-5-5------5-5-5-5-5-5-5------|
PM:=============      =============        =============      =============

Chorus 1
Chorus 2
d|---------------------------------------|---------------------------------------|
A|---------------------------------------|---------------------------------------|
F|------------------------7----10---5----|---------------------------------------|
C|-0----------------------x----x----x----|--8---------0-0-3/5--5-5-5-3/5--5-5-5--| (x2)
G|-0----------------------5----8----3----|--8---------0-0-3/5--5-5-5-3/5--5-5-5--|
C|-0-------------------------------------|--8---------0-0-3/5--5-5-5-3/5--5-5-5--|
PM:                                                   ===        ===        ===

d|---------------------------------------|
A|---------------------------------------|
F|---------------------------------------|
C|-0----------------------8----7----5----|
G|-0----------------------8----7----5----|
C|-0----------------------8----7----5----|

Verse 2
d|---------------------------------------|---------------------------------------|
A|---------------------------------------|---------------------------------------|
F|---------------------------------------|---------------------------------------|
C|-0-0-0-0-0-0-333333-0-0-0-0-0-0-222222-|-0-0-0-0-0-0-333333-0-0-0-0-0-0-222222-|
G|-0-0-0-0-0-0--------0-0-0-0-0-0--------|-0-0-0-0-0-0--------0-0-0-0-0-0--------|
C|-0-0-0-0-0-0--------0-0-0-0-0-0--------|-0-0-0-0-0-0--------0-0-0-0-0-0--------|
PM:==============================================================================

d|---------------------------------------|---------------------------------------|
A|---------------------------------------|--------------------------------PH-----|
F|---------------------------------------|--------------------------------7(26)--|
C|-8-8-8-8-8-8-10(x6)-8-8-8-8-8-8-12(x6)-|-5-5-5-5-5-5-888888-5-5-5-5-5-5--------|
G|-8-8-8-8-8-8--------8-8-8-8-8-8--------|-5-5-5-5-5-5--------5-5-5-5-5-5--------|
C|-8-8-8-8-8-8--------8-8-8-8-8-8--------|-5-5-5-5-5-5--------5-5-5-5-5-5--------|
PM: ===================================================================== ^
For the pinch harmonic, fret the 7th fret, and pluck where the 26th fret would be.
d|---------------------------------------|---------------------------------------|
A|---------------------------------------|---------------------------------------|
F|---------------------------------------|---------------------------------------|
C|-0-0-0-0-0-0-333333-0-0-0-0-0-0-222222-|-0-0-0-0-0-0-333333-0-0-0-0-0-0-222222-|
G|-0-0-0-0-0-0--------0-0-0-0-0-0--------|-0-0-0-0-0-0--------0-0-0-0-0-0--------|
C|-0-0-0-0-0-0--------0-0-0-0-0-0--------|-0-0-0-0-0-0--------0-0-0-0-0-0--------|
PM: ==============================================================================

d|---------------------------------------|---------------------------------------|
A|---------------------------------------|---------------------------------------|
F|---------------------------------------|---------------------------------------|
C|-8-8-8-8-8-8-10(x6)-8-8-8-8-8-8-12(x6)-|-5-5-5-5-5-5-888888-5-5-5-5-5-5-777777-|
G|-8-8-8-8-8-8--------8-8-8-8-8-8--------|-5-5-5-5-5-5--------5-5-5-5-5-5--------|
C|-8-8-8-8-8-8--------8-8-8-8-8-8--------|-5-5-5-5-5-5--------5-5-5-5-5-5--------|
PM: ==============================================================================

Chorus 2
d|---------------------------------------|---------------------------------------|
A|---------------------------------------|---------------------------------------|
F|------------------------7----10---5----|---------------------------------------|
C|-0----------------------x----x----x----|-8----------0-0-3/5--5-5-5-3/5--5-5-5--| (x2)
G|-0----------------------5----8----3----|-8----------0-0-3/5--5-5-5-3/5--5-5-5--|
C|-0-------------------------------------|-8----------0-0-3/5--5-5-5-3/5--5-5-5--|
PM:                                                   ===        ===        ===

d|---------------------------------------|---------------------------------------|
A|---------------------------------------|---------------------------------------|
F|--------------------7-7-7101010-5-5-5--|---------------------------------------|
C|-0---0-0-0---0-0-0--x-x-x-x-x-x-x-x-x--|-8--8-8-8--0-0-3/5--5-5-5-3/5--5-5-5-0-| (x2)
G|-0---0-0-0---0-0-0--5-5-5-8-8-8-3-3-3--|-8--8-8-8--0-0-3/5--5-5-5-3/5--5-5-5-0-|
C|-0---0-0-0---0-0-0---------------------|-8--8-8-8--0-0-3/5--5-5-5-3/5--5-5-5-0-|
PM:    ===     ===                            ===    ===        ===        ===

Bridge
d|---------------------------------------|---------------------------------------|
A|---------------------------------------|---------------------------------------|
F|---------------------------------------|---------------------------------------|
C|-0------------------3------------------|-5-----------------5-5-5---5-5-5---5-5-|
G|-0------------------3------------------|-5-----------------5-5-5---5-5-5---5-5-|
C|-0------------------3------------------|-5-----------------5-5-5---5-5-5---5-5-|
PM:                                                          ===     ===     ===

d|---------------------------------------|---------------------------------------|
A|---------------------------------------|---------------------------------------|
F|---------------------------------------|---------------------------------------|
C|-0-------------0-0--3-------------3-3--|-1--1--1--1--1--1--1--1--1--1--1--1----|
G|-0-------------0-0--3-------------3-3--|-1--1--1--1--1--1--1--1--1--1--1--1----|
C|-0-------------0-0--3-------------3-3--|-1--1--1--1--1--1--1--1--1--1--1--1----|
PM:              ===                ===    ===================================

d|---------------------------------------|---------------------------------------|
A|---------------------------------------|---------------------------------------|
F|---------------------------------------|---------------------------------------|
C|-1--1--1--1--1--1--1-------------------|--------------------------1-1--1--1----|
G|-1--1--1--1--1--1--1-------------------|--------------------------1-1--1--1----|
C|-1--1--1--1--1--1--1-------------------|--------------------------1-1--1--1----|
PM:================                                                 =========

Final Chorus 
d|---------------------------------------|---------------------------------------|
A|---------------------------------------|---------------------------------------|
F|------------------------7----10---5----|---------------------------------------|
C|-0----------------------x----x----x----|-8----------0-0-3/5--5-5-5-3/5--5-5-5--| (x2)
G|-0----------------------5----8----3----|-8----------0-0-3/5--5-5-5-3/5--5-5-5--|
C|-0-------------------------------------|-8----------0-0-3/5--5-5-5-3/5--5-5-5--|
PM:                                                   ===        ===        ===

d|---------------------------------------|---------------------------------------|
A|---------------------------------------|---------------------------------------|
F|--------------------7-7-7101010-5-5-5--|---------------------------------------|
C|-0---0-0-0---0-0-0--x-x-x-x-x-x-x-x-x--|-8--8-8-8--0-0-3/5--5-5-5-3/5--5-5-5-0-| (x2)
G|-0---0-0-0---0-0-0--5-5-5-8-8-8-3-3-3--|-8--8-8-8--0-0-3/5--5-5-5-3/5--5-5-5-0-|
C|-0---0-0-0---0-0-0---------------------|-8--8-8-8--0-0-3/5--5-5-5-3/5--5-5-5-0-|
PM:    ===     ===                            ===    ===        ===        ===

d|---------------------------------------|---------------------------------------|
A|---------------------------------------|---------------------------------------|
F|---------------------------------------|---------------------------------------|
C|-1--1--1--1--1--1--1--1--1--1--1--1----|-3--3--3--3--3--3--3--3--3--3--3--3----|
G|-1--1--1--1--1--1--1--1--1--1--1--1(x2)|-3--3--3--3--3--3--3--3--3--3--3--3(x2)|
C|-1--1--1--1--1--1--1--1--1--1--1--1----|-3--3--3--3--3--3--3--3--3--3--3--3----|
PM:==================================      ==================================

d|---------------------------------------|---------------------------------------|
A|---------------------------------------|---------------------------------------|
F|---------------------------------------|---------------------------------------|
C|-0-------------------------------------|---------------------------------------|
G|-0-------------------------------------|---------------------------------------|
C|-0-------------------------------------|---------------------------------------|





************************************

| /   slide up
| PH  Pinch Harmonic
| x   Mute note

************************************
Добавлено: 26.09.2013
Другие материалы по этой песне:
  • Аккорды и текст

Страница создана 26.09.2013
http://primanota.ru/fades-away/bury-me-alive-chords.htm
Привет, Гость.
Предлагаем пройти революционный курс по гитаре.
Подарок от PrimaNota.Ru, забирай!