PrimaNota.ru - самый крупный в мире бесплатный архив песенных текстов, аккордов, табулатур и нот


Factory 81 - Nanu - аккорды и текст, таба, видео

Регистрация Запомнить меня
Войти через:  Facebook Google Twitter Vk Yandex Mail.ru

Factory 81 - Nanu - аккорды и текст, таба, видео

Печатать
Просмотров: 253
Nanu
Factory 81
Tuning: drop D down 1 whole step, low to high (C,G,C,F,A,D) 

intro- clean w/ phaser or wah, when using the wah rock the pedal back and forth slowly, the phaser creates this effect automatically. 

D----------------------------------------
A----------------------------------------
F----------------------------------------
C----------------------------------------
G-------5-5-5---------------8-8-8--6-6-6-
C-0-0-0-------6-6-6--7-7-7--------------- 

(heavy dist) riff A 

D--------------------------------------------
A--------------------------------------------
F--------7-7-7---------------10-10-10--8-8-8-
C--------7-7-7--6-6-6--7-7-7-10-10-10--8-8-8-
G-0-0-0--5-5-5--6-6-6--7-7-7--8--8--8--6-6-6-
C-0-0-0---------6-6-6--7-7-7----------------- 

riff B repeat 2x then this 2 more times.. 

D------------------| ---------------
A------------------| ---------------
F------------------| ---------------
C------------------| ---------------
G-----5----0---|-----5----0--1-| |-----5----0--0-0-0--0-0-0-
C-6-7---7--0---|-6-7---7--0--1-| |-6-7---7--0--0-0-0--0-0-0- 

chorus second ending 

D-----------------------------------------
A-----------------------------------------
F------7/8-8-8----------------------------
C------7/6-6-6--6---3-3-3-3-3-3-3-3-|-3-3-3---1-1-1-1-
G-0-0--5/6-6-6--6---3-3-3-3-3-3-3-3-|-3-3-3---1-1-1-1-
C-0-0-----------6---3-3-3-3-3-3-3-3-|-3-3-3---1-1-1-1- 

bridge 

D----------------------
A----------------------
F----------------------
C----------------------
G-0-1-0--0-0--0-1-0--6-
C-0-1-0--0-0--0-1-0--6- 

interlude-basically the same as the intro but w/ distortion 

D---------------------------------------
A---------------------------------------
F---------------------------------------
C---------------------------------------
G-------5-5-5--------------8-8-8--6-6-6-
C-0-0-0-------6-6-6--7-7-7-------------- 

then do riff A a couple more times then this little thing here..
outro 

D--------------------------
A--------------------------
F--------------------------
C----7--8--9---------------
G-0--5--6--7-------6----0--
C-0------------5-7---7--0--
Добавлено: 12.05.2012
Другие материалы по этой песне:

Страница создана 27.03.2012
http://primanota.ru/factory-81/nanu-chords.htm
Привет, Гость.
Предлагаем пройти революционный курс по гитаре.
Подарок от PrimaNota.Ru, забирай!