PrimaNota.ru - самый крупный в мире бесплатный архив песенных текстов, аккордов, табулатур и нот


Face Tomorrow - Worth The Wait - таба, видео

Регистрация Запомнить меня
Войти через:  Facebook Google Twitter Vk Yandex Mail.ru

Face Tomorrow - Worth The Wait - таба, видео

Печатать
Просмотров: 385
worth the wait


intro

E ----------------------------------------------------------------------------|
B -------------------------------------------7------3-----5-------------------|
G --4-4-----4-4----4-4---------------------4--4---4--4--4--4------------------|
D -5-5-5-0-2-2-2-0------------------------5-5--5-2-2--2-----------------------|
A ----------------2-2-2-0-3-3>55-5>7-0------------------2-2--2-3-3>55-5>7-0---|
E ----------------------------------------------------------------------------|


E -------------------------------------------------------------|
B -------------------------------------------------------------|
G -9-12-11-12-5-12-11-12-7-12-11-12--12-11-14-12---------------|
D -------------------------------------------------------------|
A -7-10-9--10-3-10--9-10-5-10-9--10--10-9--12-10---------------|
E -------------------------------------------------------------|

part a

E ------------------- -------------------------------------------|
B ---------------------------------------------------------------|
G ---------------------------------------------------------------|
D -0-2-4-5-0-2-4-5-0-2-4-5-0-2-4-5--2>0--------------------------|
A --------------------------------------0-3-2-0------------------|
E ---------------------------------------------------------------|
*palm mute*

E --------------------------------------------------------------|
B --------------------------------------------------------------|
G ---------------------------------------4----------------------|
D -0-2-4-5-0-2-4-5-0-2-4-5-0-2-4-5--2>0----5>4-4>5>4------------|
A --------------------------------------------------------------|
E --------------------------------------------------------------|

couplet

E ---------------------------------------------------------------|
B ---------------------------------------------------------------|
G -4-4>0---/4---- ------5>4--------------------------------------|
D -------2---4-5-4>5-0----5--------------------------------------|
A ---------------------------------------------------------------|
E ---------------------------------------------------------------|

2X


E --------------------------------------------------------------|
B --------------------------------------------------------------|
G 4--------------4-------------4-------------------7------------|
D ---2-2>0-0>2>0--5>4-0-4>5>4---2-2>0-0>2>0-5-4>0---------------|
A --------------------------------------------------------------|
E --------------------------------------------------------------|

* than repeat part a, at the end of it, it's slightly different, you get some wild;

E ---------------------------------------------------------------|
B ---------------------------------------------------------------|
G -4--4>0-5-54545454-4-4>0-------------7--4----- ----------------|
D --------------------------5-54545454---------------------------|
A ---------------------------------------------------------------|
E ---------------------------------------------------------------|

* then you het this breakdown part where i play

E --------------------------------------|
B ------7------3-----5------------------|
G ----4--4---4--4--4--4-----------------|
D ---5-5--5-2-2--2----------------------|
A ------------------2-2--2-3-3>55-5>7-0-|
E --------------------------------------|

bridge

E -----------------------------------------------------------------------------|
B -----------------------------------------------------------------------------|
G -------12----------5-4-7-5---------------------------------------------------|
D --9-2------2--9-2------------------------------------------------------------|
A --7-2--10--2--7-2--3-2-5-3---------------------------------------------------|
E --7-0------0--7 -0-----------------------------------------------------------|

then you get the first part of part a again, followed by some metal riffing:

E -------------------------------------------------------------------------------|
B -------------------------------------------------------------------------------|
G ---------5-4-7-5---------------------------------------------------------------|
D --9-2-9------------9-10-9-12-9-10-9---9-7-9-5-7-45--9-10-9-12-9-10-9--7-5-9-7--|
A --7-2-7--3-2-5-3---------------------------------------------------------------|
E --7-0-7-----------0-0--0-0--0-0--0---0-0-0-0-0-0---0-0--0-0--0-0--0------------|

then the end is the same as the end of intro;

E -------------------------------------------------------------|
B -------------------------------------------------------------|
G -9-12-11-12-5-12-11-12-7-12-11-12--12-11-14-12---------------|
D -------------------------------------------------------------|
A -7-10-9--10-3-10--9-10-5-10-9--10--10-9--12-10---------------|
E -------------------------------------------------------------|
Добавлено: 07.07.2012
Другие материалы по этой песне:
  • Аккорды и текст

Страница создана 07.07.2012
http://primanota.ru/face-tomorrow/worth-the-wait-chords.htm
Привет, Гость.
Предлагаем пройти революционный курс по гитаре.
Подарок от PrimaNota.Ru, забирай!