PrimaNota.ru - самый крупный в мире бесплатный архив песенных текстов, аккордов, табулатур и нот


Face To Face - Welcome Back To Nothing - таба, видео

Регистрация Запомнить меня
Войти через:  Facebook Google Twitter Vk Yandex Mail.ru

Face To Face - Welcome Back To Nothing - таба, видео

Печатать
Просмотров: 72
-----------------------------------------------------------------------------
                Welcome Back To Nothing - Face to Face
-----------------------------------------------------------------------------
Tabbed by: BlenderBR
E-mail: fabiosignori.zero@hotmail.com

Intro -

e|---------------------------|                           
B|---------------------------|                     
G|-999999-11-9-7-99999-11-9--|                           
D|-999999-11-9-7-99999-11-9--| 
A|-777777-9--7-5-77777-9--7--|  4x
E|---------------------------|


Verse -
(I'll be the one you love, I'll be the one you love to hate...)

e|---------------------------------------|
B|---------------------------------------|
G|------7-----99999-11-9-7-99999-11-9----|
D|-7----7-7---99999-11-9-7-99999-11-9----|  2x
A|-7----5-7---77777-9--7-5-77777-9--7----|
E|-5------5------------------------------|

Pre Chorus - 
(Don't call it desperation, You're circling the drain...)

e|---------------------|
B|---------------------|
G|-9------------9-xx---|
D|-9-9-7-xx-7-9-9-xx---| 2x
A|-7-9-7-xx-7-9-7-xx---|
E|---7-5-xx-5-7--------|

(You were supposed to be the golden boy...)

e|---------------------------------------------------|
B|---------------------------------------------------|
G|---666-888-99999-11-9-7-9999-------66666-8888888---|
D|---666-888-99999-11-9-7-9999-99999-66666-8888888---|
A|---444-666-77777-9--7-5-7777-99999-44444-6666666---|
E|-----------------------------77777-----------------|

Chorus -
(Welcome back to nothing...)

e|---------------------------|                           
B|---------------------------|                     
G|-999999-11-9-7-99999-11-9--|                           
D|-999999-11-9-7-99999-11-9--| 
A|-777777-9--7-5-77777-9--7--| 2x
E|---------------------------|

Verse 2 -
(I'll take you by the hand, I'll take your hand and I will bite...)

e|---------------------------------------|
B|---------------------------------------|
G|------7-----99999-11-9-7-99999-11-9----|
D|-7----7-7---99999-11-9-7-99999-11-9----|  2x
A|-7----5-7---77777-9--7-5-77777-9--7----|
E|-5------5------------------------------|

Pre Chorus - 
(It smacks of desperation, You're circling the drain...)

e|---------------------|
B|---------------------|
G|-9------------9-xx---|
D|-9-9-7-xx-7-9-9-xx---| 2x
A|-7-9-7-xx-7-9-7-xx---|
E|---7-5-xx-5-7--------|

(They said you were the chosen one...)

e|---------------------------------------------------|
B|---------------------------------------------------|
G|---666-888-99999-11-9-7-9999-------66666-8888888---|
D|---666-888-99999-11-9-7-9999-99999-66666-8888888---|
A|---444-666-77777-9--7-5-7777-99999-44444-6666666---|
E|-----------------------------77777-----------------|

Chorus -
(Welcome back to nothing...)

e|---------------------------|                           
B|---------------------------|                     
G|-999999-11-9-7-99999-11-9--|                           
D|-999999-11-9-7-99999-11-9--| 
A|-777777-9--7-5-77777-9--7--| 8x
E|---------------------------|

************************************

| /   slide up
| \   slide down
| h   hammer-on
| p   pull-off
| ~   vibrato
| +   harmonic
| x   Mute note
| b   Bend
| pb  Pre-bend
| br  Bend release
| pbr Pre-bend release
| brb Bend release bend

************************************
Добавлено: 07.12.2013
Другие материалы по этой песне:
  • Аккорды и текст

Страница создана 07.12.2013
http://primanota.ru/face-to-face/welcome-back-to-nothing-chords.htm
Привет, Гость.
Предлагаем пройти революционный курс по гитаре.
Подарок от PrimaNota.Ru, забирай!