PrimaNota.ru - самый крупный в мире бесплатный архив песенных текстов, аккордов, табулатур и нот


Face To Face - Overcome - текст песни, таба, видео

Регистрация Запомнить меня
Войти через:  Facebook Google Twitter Vk Yandex Mail.ru

Face To Face - Overcome - текст песни, таба, видео

Печатать
Просмотров: 113
-------------------------------------------------------------------------------
                             "Overcome" - Face To Face
-------------------------------------------------------------------------------
This is my first guitar tab ever, so sorry if some parts are wrong. This is how I play 
it, like I said, this is
absolutely not 100% correct. Hope this helps.

Tuning: Standard


Intro: (Guitar 1)
e|---------------------------------------------------------------------------|
B|---------------------------------------------------------------------------|
G|4-4-4-4-4-4-4-4--2--2-2-2-2-2-2-2------------------------------------------|
D|4-4-4-4-4-4-4-4--2--2-2-2-2-2-2-2------------------------------------------|4x
A|2-2-2-2-2-2-2-2--0--0-0-0-0-0-0-0------------------------------------------|
E|---------------------------------------------------------------------------|
Intro: (Guitar 2)
e|---------------------------------------------------------------------------|
B|---------------------------------------------------------------------------|
G|4-4-4-4-4-4-4-4------------------------------------------------------------|
D|4-4-4-4-4-4-4-4--11b--11-11-11-11-11/9-------------------------------------|4x
A|2-2-2-2-2-2-2-2--9b---9--9--9--9--9-/7-------------------------------------|
E|---------------------------------------------------------------------------|

(Repeat Guitar 1 Part 4x for the Verse)


Chorus (Both Guitars): (Strumming pattern not shown, I play these chords)
e|---------------------------------------------------------------------------|
B|---------------------------------------------------------------------------|
G|4-6-7-4-6-9-7-4-6-7-9-7-6-9-7-11-------------------------------------------|
D|4-6-7-4-6-9-7-4-6-7-9-7-6-9-7-11-------------------------------------------|
A|2-4-5-2-4-7-5-2-4-5-7-5-4-7-5-9--------------------------------------------|
E|---------------------------------------------------------------------------|

Back to Intro x4
Then another Verse x4
Then another Chorus
Then back to Intro again x4
FINALLY, one last Chorus


Bridge: (Guitar 2) (Intro Guitar 1 plays very low, then this comes in, also very low)
Give some feedback before this-
e|---------------------------------------------------------------------------|
B|---------------------------------------------------------------------------|
G|---------------------------------------------------------------------------|
D|16----------5-----------(4)------------------------------------------------|x2
A|---------------------------------------------------------------------------|
E|---------------------------------------------------------------------------|

Then this little part:        {Play this section after the second time only}
e|---------------------------|------------------------------------------------|
B|-----2---------------------|------------------------------------------------|
G|---4---4-------------------|------------------------------------------------|
D|4---------4------------(x2)|--/5-5-5-5-5-5p4--4-----------------------------|
A|---------------------------|------------------------------------------------|
E|---------------------------|------------------------------------------------|

Then it switches over to this which repeats x4
e|---------------------------------------------------------------------------|
B|----2-------2--------------------------------------------------------------|
G|--4---4-------4------------------------------------------------------------|
D|4-------4-4-----0----------------------------------------------------------|
A|---------------------------------------------------------------------------|
E|---------------------------------------------------------------------------|

Play this until the end: Have Guitar 1 play this first, then add Guitar 2
after 4 times playing it (Strumming pattern not shown)
e|------------------------------------------------------------------------------|
B|------------------------------------------------------------------------------|
G|11-7-9------------------------------------------------------------------------|
D|11-7-9------------------------------------------------------------------------|
A|9--5-7------------------------------------------------------------------------|
E|------------------------------------------------------------------------------|


************************************

| /   slide up
| \   slide down
| h   hammer-on
| p   pull-off
| ~   vibrato
| +   harmonic
| x   Mute note
| b   Bend
| pb  Pre-bend
| br  Bend release
| pbr Pre-bend release
| brb Bend release bend

************************************
Добавлено: 09.09.2015
Другие материалы по этой песне:
  • Аккорды и текст

Страница создана 06.04.2012
http://primanota.ru/face-to-face/overcome-chords.htm
Привет, Гость.
Предлагаем пройти революционный курс по гитаре.
Подарок от PrimaNota.Ru, забирай!