PrimaNota.ru - самый крупный в мире бесплатный архив песенных текстов, аккордов, табулатур и нот


The Fabulous Miss Wendy - No One Can Stop Me - таба, видео

Регистрация Запомнить меня
Войти через:  Facebook Google Twitter Vk Yandex Mail.ru

The Fabulous Miss Wendy - No One Can Stop Me - таба, видео

Печатать
Просмотров: 96
-------------------------------------------------------------------------------
                             SONG NAME - Band Name
-------------------------------------------------------------------------------
Tabbed by:
E-mail:

Tuning:Standard E A D G B E


Intro
e|-------------------------------------------------------------------------|
B|-------------------------------------------------------------------------|
G|-------------------------------------------------------------------------|
D|--------------------------------------------------Play Twice-------------|
A|---1--3--1----1-3-1-----1--3--1---6-6-6--5-5-5---------------------------|
E|-3----------3--------3---------------------------------------------------|


Verse 1
e|-------------------------------------------------------------------------|
B|-------------------------------------------------------------------------|
G|-------------------------------------------------------------------------|
D|--------------------------------------------------------------Play Twice-|
A|-------1-3-3-3-1-------1-3-3-3-1------1-3-3-3-1--6-6-6-5-5-5-------------|
E|-3-3-3-----------3-3-3-----------3-3-3-----------------------------------|


Chorus Intro
e|-------------------------------------------------------------------------|
B|-------------------------------------------------------------------------|
G--3-3-3-3-3-3-3-3--8-8-8-8-8-8-8-8----------------------------------------|
D|-3-3-3-3-3-3-3-3--8-8-8-8-8-8-8-8----------------------------------------|
A|-1-1-1-1-1-1-1-1--6-6-6-6-6-6-6-6-----1--3--1-----1-3-1------------------|
E|-----------------------------------3-----------3-------------------------|


Chorus
e|-------------------------------------------------------------------------|
B|-------------------------------------------------------------------------|
G|-3-3-3-3-3-3-3-3--8-8-8-8-8-8-8-8--5-5-5-5-5-5-5-5--8-8-8-8-8-8-8-8--Play|
D|-3-3-3-3-3-3-3-3--8-8-8-8-8-8-8-8--5-5-5-5-5-5-5-5--8-8-8-8-8-8-8-8-Twice|
A|-1-1-1-1-1-1-1-1--6-6-6-6-6-6-6-6--3-3-3-3-3-3-3-3--6-6-6-6-6-6-6-6------|
E|-------------------------------------------------------------------------|


Verse 2 Intro
e|--------------------------------------------------------------------------|
B|--------------------------------------------------------------------------|
G|--------------------------------------------------------------------------|
D|--------------------------------------------------------------------------|
A|----1--3--1----1-3-1-----1--3--1--6-6-6--5-5-5----------------------------|
E|-3-----------3--------3---------------------------------------------------|


Verse 2
e|--------------------------------------------------------------------------|
B|--------------------------------------------------------------------------|
G|-----------------------------------------------------------------Play-----|
D|-----------------------------------------------------------------Twice----|
A|-------1-3-3-3-1-------1-3-3-3-1--------1-3-3-3-1--6-6-6--5-5-5-----------|
E|-3-3-3-----------3-3-3------------3-3-3-----------------------------------|


Chorus
e|--------------------------------------------------------------------------|
B|--------------------------------------------------------------------------|
G|-3-3-3-3-3-3-3-3--8-8-8-8-8-8-8-8--5-5-5-5-5-5-5-5--8-8-8-8-8-8-8-8--Play-|
D|-3-3-3-3-3-3-3-3--8-8-8-8-8-8-8-8--5-5-5-5-5-5-5-5--8-8-8-8-8-8-8-8--Four-|
A|-1-1-1-1-1-1-1-1--6-6-6-6-6-6-6-6--3-3-3-3-3-3-3-3--6-6-6-6-6-6-6-6--Times|
E|--------------------------------------------------------------------------|

  Couldn't play the solo by ear so I skipped it just repeat chorus through it

               After solo chorus 2nd chorus repeats

Outro
e|--------------------------------------------------------------------------|
B|--------------------------------------------------------------------------|
G|--------------------------------------------------------------------------|
D|--------------------------------------------------------------------------|
A|----1--3--1----1-3-1-----1--3--1--6-6-6--5-5-5----------------------------|
E|-3-----------3--------3---------------------------------------------------|


************************************

| /   slide up
| \   slide down
| h   hammer-on
| p   pull-off
| ~   vibrato
| +   harmonic
| x   Mute note
| b   Bend
| pb  Pre-bend
| br  Bend release
| pbr Pre-bend release
| brb Bend release bend

************************************
Добавлено: 09.11.2015
Другие материалы по этой песне:
  • Аккорды и текст

Страница создана 09.11.2015
http://primanota.ru/fabulous-miss-wendy/no-one-can-stop-me-chords.htm
Привет, Гость.
Предлагаем пройти революционный курс по гитаре.
Подарок от PrimaNota.Ru, забирай!