PrimaNota.ru - самый крупный в мире бесплатный архив песенных текстов, аккордов, табулатур и нот


Fabrizio Moro - Come - таба, видео

Регистрация Запомнить меня
Войти через:  Facebook Google Twitter Vk Yandex Mail.ru

Fabrizio Moro - Come - таба, видео

Печатать
Просмотров: 164
Fabrizio Moro - Come...

------------------------------------------------------------------------
This song is originally played with Organ (chords) and Backing Guitar.

-Backing Gtr:
e|---0-----|
B|-------4-| (repeat during all the song
G|-4---4---|  with dissolved echo effect)
------------------------------------------------------------------------

                                            Chord Reference:
                                           B   = SI   = x24442
                                           C#m = DO#m = x46654
                                           E   = MI   = x22100

** Intro: [B] [C#m] [E]

-Lead Gtr:
e|------------------------------------------0~-----|
B|--4h5-4---4~----4h5-4---------4h5-4---4~--5~--4~-|
G|--4~----6-------6~----6-4~----------6------------|
D|------------------------------6~-----------------|
A|-------------------------------------------------|
E|-[B]-----------[C#m]---------[E]-------------[B]-|

e|--6h7-6-----------------------2h4-2-0-2~--0~-----|
B|--------9-7-------------7~----2~----------5~--4~-|
G|--8~--------9-8-8h9-8----------------------------|
D|----------------11~---9--------------------------|
A|-------------------------------------------------|
E|-[B]-----------[C#m]---------[E]-------------[B]-|

Bum...
Sono [C#m]quello che l'altra sera... volevi ammazzare [E]
sono venuto a par[B]lare.
Sarebbe bello se lasciassi un po' di spazio alla mia spiegazione [C#m]
Potrei sve[E]larti qual è il dramma, se c'è un dramma in questa relazione [B]
Guarda però... tu sei tr[C#m]oppo rigida
Guarda pe[E]rò... io mi [B]sento come
Come le farfalle, come un alveare
Come la [C#m]moglie di brigadiere che scappa con un crimi[E]nale
Come i sogni di un bambino troppo timido... [B] figlio di un generale
Come le chiese il giorno di Natale
Come un [C#m]assassino ad un funerale
Come un parrucchie[E]re quando è lunedì e non va a lavorare [B]

Non fare la difficile
Non compor[C#m]tarti come tutte quelle che hanno la Smart [E]
Sono venuto a par[B]lare

-Bass Bridge:
G|-------------------|
D|--9-8-6------------|
A|--------9-7-6------|
E|-[B]----------9-7~-|

Sarebbe bello se lasciassi un po' di spazio alla mia spiegazione [C#m]
Potrei sve[E]larti qual è il dramma se c'è un dramma in questa relazione [B]
Guarda però... tu sei [C#m]troppo pratica
Guarda pe[E]rò... io mi [B]sento come
Come le nuvole, come le pere
Appese a un [C#m]ramo prima di cadere
Come le cande[E]le quando non c'è luce
Come le [B]briciole, come le briciole
Come chi è contento già a metà
Come Co[C#m]lombo in America
Come mio fra[E]tello quando è venerdì e va via di qui [B]

Guarda però... tu non [C#m]sei simpatica
Guarda pe[E]rò... sono venuto a par[B]lare.
Добавлено: 22.07.2013
Другие материалы по этой песне:
  • Аккорды и текст

Страница создана 22.07.2013
http://primanota.ru/fabrizio-moro/come-chords.htm
Привет, Гость.
Предлагаем пройти революционный курс по гитаре.
Подарок от PrimaNota.Ru, забирай!