PrimaNota.ru - самый крупный в мире бесплатный архив песенных текстов, аккордов, табулатур и нот


Fabio Concato - Tornando A Casa - таба, видео

Регистрация Запомнить меня
Войти через:  Facebook Google Twitter Vk Yandex Mail.ru

Fabio Concato - Tornando A Casa - таба, видео

Печатать
Просмотров: 68
		   Tornando a casa
(Fabio Concato)


  Intro: P
      P
   Am9                                Re4(9)/A                       P
||-0--------------|-----------------|-----------------|----------------|
||-0--------0-----|-----------0-----|--3--------3-----|----------3-----|
||-5-----5-----5--|--------5-----5--|--------0-----0--|-------0-----0--|
||----5-----------|-----5-----------|-----4-----------|----4-----------|
||-0--------------|--0--------------|--0--------------|-0--------------|
||----------------|-----------------|-----------------|----------------|
                                                                       P

   Am9                                Re4(9)/LaP
|-----------------|-----------------|-----------------|---------------||
|-----------0-----|-----------0-----|-----------3-----|----------3----||
|--------5-----5--|--------5-----5--|--------0-----0--|-------0-----3-||
|-----5-----------|-----5-----------|-----4-----------|----4----------||
|--0--------------|--0--------------|--0--------------|-0-------------||
|-----------------|-----------------|-----------------|---------------||
                                                                       P


   Am9               La-9/Sol          F6                            P
||-----------------|-----------------|-----------------|---------------|
||-----------0-----|-----------0-----|-----------1-----|----------1----|
||*-------5-----5--|--------5-----5--|--------2-----2--|-------2-----2-|
||*----5-----------|-----5-----------|-----0-----------|----0----------|
||--0--------------|-----------------|-----------------|---------------|
||-----------------|--3--------------|--1--------------|--1------------|
1. Ritornando  a casa     come    sempreP
2. C'? qualcosa      che mi spinge forte
3. (intermezzo strumentale)                                          P

   Si-7/5-           Mi5+            Am9                Re4(9)/LaP
|----------------|----------------|------------------|-----------------|
|------------3---|---1--------1---|-----------0------|-----------3-----|
|---------2------|---------1------|--------5-----0---|--------0-----0--|
|------3---------|------2---------|-----5------------|-----4-----------|
|---2------------|----------------|--0---------------|--0--------------|
|----------------|---0------------|------------------|-----------------|
1. c'? tanta gente intorno a me                                        

2. mi sposto e non so dove andare
3. (intermezzo strumentale)   P

   Am9              La-9/Sol          F6              Em6           P
|-----------------|-----------------|-----------------|----------------|
|-----------0-----|-----------0-----|-----------1-----|----------------|
|--------5-----5--|--------5-----5--|--------2-----2--|------------0---|
|-----5-----------|-----5-----------|-----0-----------|---------4------|
|--0--------------|-----------------|-----------------|------2---------|
|-----------------|--3--------------|--1--------------|---0------------|
1. molte facce      le conosco        gi?                    e intanto 
P
2. c'? di buono     che siamo         duemila                e anche 
se
3. (intermezzo strumentale)
 P





   P
    Si-7/5-           Mi5+           Am9                              P
|----------------|----------------|-----------0-----|------------------|
|------------3---|---1--------1---|--------------0--|-----------0------|
|---------2------|---------1------|--------5--------|--------5-----5---|
|------3---------|------2---------|-----5-----------|-----5------------|
|---2------------|----------------|--0--------------|--0---------------|
|----------------|---0------------|-----------------|------------------|
1. il tram dei desideri            va                      e viaggiano P
2. frena non si pu?               cascare                  e alloraP
3. (intermezzo strumentale)                                e allora
    P
    Dm7             Sol             Mi9-/5+  Mi9-      Am9  Am7     P
|-----------------|-----------------|---8-----7------|---7-----5-------|
|--6--------6-----|--3--------3-----|---6-----6------|---5-----5-------|
|--------5-----5--|--------4-----4--|---7-----7------|---5-----5-------|
|-----7-----------|-----5-----------|------6-----6---|------5------5---|
|--5--------------|-----------------|----------------|---0-------------|
|-----------------|--3--------------|---0------------|-----------------|
1. speranze      viaggiano i miei     sogni                       forse
2. rido dimmi    cosa dovrei          fare                          seP
3. chiudo gli occhi e so che cosa     fare                        penso
 P

    Soldim                               Dm7              Dm9        P
|---6--------6------|--6--------6-----|---5--------5---|---0--------0--|
|---------5---------|--------5--------|---------6------|---6-----6-----|
|------6--------6---|-----6--------6--|------5---------|------5--------|
|---5---------------|--5--------------|----------------|---------------|
|-------------------|-----------------|---5------------|---5-----------|
|-------------------|-----------------|----------------|---------------|
1. uguali a tutti quelli che son         qua                  e penso aP
2. vedessi questo tram cosa non           ?                   con 
questa
3. solo a cose belle penso a             te                   e penso


 Sol  Do/A Sol-/5- Si-5+  C9            C              Si-7/5-      P
|------------------------|--------------|---------------|--------------|
|-0-----1-----2-----3----|-3--------3---|-1--------1----|-3--------3---|
|----0-----0-----0-----0-|-------0------|-------0-------|-------2------|
|------------------------|----2-------2-|----2--------2-|----3-------3-|
|-------0-----1-----2----|-3------------|-3-------------|-2------------|
|-3----------------------|--------------|---------------|--------------|
1. quanti affanni abbiamo tutti i giorni       e che     fatica  la   P
2. gente cos? stanca di sognare                ed io     pi? stanco
3. ma che brutta bestia la tristezza           ma       questa sera

                      Em           Am9              La-9/Sol
|------------------|----------0--|------------------|------------------|
|------------3-----|---0---------|------------0-----|-----------0------|
|---------2--------|-------------|---------5-----5--|--------5-----5---|
|------3--------3--|-------2-----|------5-----------|-----5------------|
|---2--------------|-------------|---0--------------|------------------|
|------------------|---0---------|------------------|--3---------------|
1. serenit?                        ritornando a      casa comeP
2. che mi sogno te                 ritornando a      casa comeP
3. non mi prender?                 ritornando a      casa come







   F6                                   Si-7/5-         Mi5+          P
|------------------|------------------|--------------|-----------------|
|-----------1------|-----------1------|-----------3--|---1--------1----|
|--------2-----2---|--------2-----2---|--------2-----|---------1-------|
|-----0------------|-----0------------|-----3--------|------2----------|
|------------------|------------------|--2-----------|-----------------|
|--1---------------|--1---------------|--------------|---0-------------|
1. sempre                              c'? qualcosa    che non      va 
P
2. sempre                              c'? tanta gente intorno a me    
P
3. sempre                              sei pronta amore che si va


 ______
|1. e 2.  F6                          Re9/F#                         P
|------------------|-----------------|-----------------|---------------|
|------------1-----|-----------1-----|-----------1-----|---------1-----|
|---------2-----2--|--------2-----2--|--------2-----2--|------2-----2--|
|------0-----------|-----0-----------|-----0-----------|----0----------|
|------------------|-----------------|-----------------|---------------|
|---1--------------|--1--------------|--2--------------|--2------------|
                                                                       P

   Am9             La-9/Sol          F6                              P
|-----------------|----------------|-----------------|-----------------|
|-----------0-----|----------0-----|-----------1-----|----------1------|
|--------5-----5--|-------5-----5--|--------2-----2--|-------2-----2--*|
|-----5-----------|----5-----------|-----0-----------|----0-----------*|
|--0--------------|----------------|-----------------|-----------------|
|-----------------|-3--------------|--1--------------|--1--------------|
                                                                   P
  _P
 |3.  Am9                             Re4(9)/LaP
||-----------------|-----------------|----------------|----------------|
||-----------0-----|-----------0-----|----------3-----|----------3-----|
||*-------5-----5--|--------5-----5--|-------0-----0--|-------0-----0--|
||*----5-----------|-----5-----------|----4-----------|----4-----------|
||--0--------------|--0--------------|-0--------------|-0--------------|
||-----------------|-----------------|----------------|----------------|
                                                                       P

   Am9                                 Re4(9)/LaP
|----------------|-----------------|----------------|-----------------||
|----------0-----|-----------0-----|-----------3----|----------3------||
|-------5-----5--|--------5-----5--|--------0-----0-|-------0-----0--*||
|----5-----------|-----5-----------|-----4----------|----4-----------*||
|-0--------------|--0--------------|--0-------------|-0---------------||
|----------------|-----------------|----------------|-----------------||
          _
Ripetere |3. altre 3 volte

Finale:
    P
    Am9                                                           P
||---0---||
||---0---||                                                       P
||---5---||P
||---5---||P
||---0---||P
||-------|| 
||Stef@no||
sdello@tin.it
     
Добавлено: 11.08.2013
Вам также может быть интересно:
Другие материалы по этой песне:
  • Аккорды и текст

Страница создана 11.08.2013
http://primanota.ru/fabio-concato/tornando-a-casa-chords.htm
Привет, Гость.
Предлагаем пройти революционный курс по гитаре.
Подарок от PrimaNota.Ru, забирай!