PrimaNota.ru - самый крупный в мире бесплатный архив песенных текстов, аккордов, табулатур и нот


Fabio Concato - Provaci Tu - таба, видео

Регистрация Запомнить меня
Войти через:  Facebook Google Twitter Vk Yandex Mail.ru

Fabio Concato - Provaci Tu - таба, видео

Печатать
Просмотров: 69
		   ========
Da: "||Stef@no||"  sdello@tin.it>
Data: lunedì, 29. gennaio 2001 21:38
--------

                                  Provaci tu
                                (Fabio Concato)


   Am     La-/F#   F       E       Am     La-/F#   F       E
||-----------------|------------------|------------------|-----------------|
|
||-3-----1-3-----1-|-3-----1--0-----0-|-3-----1--3-----1-|-3-----1-0-----0-|
|
||-----2-------2---|-----2--------1---|-----2--------2---|-----2-------1---|
|
||---2-------0-----|---3--------2-----|---2--------0-----|---3-------2-----|
|
||-0---------------|------------------|-0----------------|-----------------|
|
||---------2-------|-1--------0-------|----------2-------|-1-------0-------|
|

    Am               Mi/Sol#           Do7/Sol           Re/F#    RE9/Fa#
||--------0-------0-|-----------------|-----------------|-------------------
|
||------1-------1---|-------5-------5-|-------1-------1-|-------3-1-------1-
|
||*---2-------2-----|-----4-------4---|-----3-------3---|-----2---------2---
|
||*-----------------|---2-------2-----|---2-------2-----|---0---------0-----
|
||--0-------0-------|-----------------|-----------------|-------------------
|
||------------------|-4-------4-------|-3-------3-------|-2---------2-------
|
1. Oggi vorrei scappare da questo inferno che non può cambiare più
2. Vorrei scappare da questo lungo inverno che non vuol finire mai

  F      E        Am         La9/Sol  Si7/F# B7       Si-7/4   Mi5+ E
|-----------------|---------0-----------|----------------|-------0---------|
|
|-------1-0-----0-|-------1---0-------0-|------0-------0-|-3-------3--1-0--|
|
|-----2-------1---|-----2-----------2---|----2-------2---|-----2--------1-*|
|
|---3-------2-----|---2-----------2-----|--1-------1-----|---0----------2-*|
|
|-----------------|-0-------------------|--------2-------|-2---------------|
|
|-1-------0-------|-------------3-------|-2--------------|------------0-0--|
|
1. sono stanco e non mi sento di combattere anche se lo chiedi tu
2. io così diverso io che vivo male circondato da troppi banditi e da troppa
imbecillità

   Am7              Do7/Sol  Do7/F#   F                 Re-/B
||-----------------|------------------|------------------|------------------
|
||-1-----1-------1-|-------1--------1-|-------1--------1-|-3-----3--0-----0-
|
||-----0-------0---|-----3--------3---|-----2--------2---|-----2--------1---
|
||---2-------2-----|---2--------2-----|---3--------3-----|---3--------0-----
|
||-0-------0-------|------------------|------------------|-2----------------
|
||-----------------|-3--------2-------|-1--------1-------|----------0-------
|
     ma               chi l'ha detto che    cambierà            così tenere
le canzoni

   Am     La-/Sol  F          Mi5+ E   Am7              Do7/Sol  Do7/F#
|-----------------|---------------------|-----------------|-----------------
|
|-------1-------1-|-------1--3--1-----0-|-1-----1-------1-|-------1-------1-
|
|-----2-------2---|-----2-------------1-|-----0-------0---|-----3-------3---
|
|---2-------2-----|---3------------2----|---2-------2-----|---2-------2-----
|
|-0---------------|---------------------|-0-------0-------|-----------------
|
|---------3-------|-1-----------0-----0-|-----------------|-3-------2-------
|
   che parlano ancora di grande futuro e di libertà. B         liberi di
fare

    F                 Re-/B  E       F       Re/F#    Am7     Re/F#
|------------------|------------------|------------------|------------------
|
|-------1--------1-|-3-----3--0-----0-|-------1--------3-|-1-----1--------3-
|
|-----2--------2---|-----2--------1---|-----2--------2---|-----0--------2---
|
|---3--------3-----|---3--------0-----|---3--------0-----|---2--------0-----
|
|------------------|-2----------------|------------------|-0----------------
|
|-1--------1-------|----------0-------|-1--------2-------|----------2-------
|
   tutto anche di non lavorare, di non avere un posto d'abitare con la
speranza di non

  F      E7          Am      La-/F#   F       E        Am
La-/F#
|-----------------||------------------|------------------|------------------
|
|-3-----3-3-----0-||-3-----1--3-----1-|-3-----1--0-----0-|-3-----1--3-----1-
|
|-----2-------1---||-----2--------2---|-----2--------1---|-----2--------2---
|
|---3-------0-----||---2--------0-----|---3--------2-----|---2--------0-----
|
|-----------------||-0----------------|------------------|-0----------------
|
|-1-------0-------||----------2-------|-1--------0-------|----------2-------
|
stare male liberi anche di morire



  F       E          Sib-               Fa/A             Do#7/Sol#
|------------------||-------------------|-----------------|-----------------
|
|-3-----1--0-----0-||--2-----2--------2-|-------6-------6-|------2--------2-
|
|-----2--------1---||*-----3--------3---|-----5-------5---|----4--------4---
|
|---3--------2-----||*---3--------3-----|---3-------3-----|--3--------3-----
|
|------------------||--1--------1-------|-----------------|-----------------
|
|-1--------0-------||-------------------|-5-------5-------|-4-------4-------
|
                    1.Bisognerebbe non pensare a niente, molta gente già lo
                      2.Ma anche dentro queste case non va bene, perché è
fuori che non

  Re#/Sol            F#      F        Sib-    SIb-/Sol#  Do/Sol  C7
|------------------|------------------|------------------|------------------
|
|-------4--------4-|-------2--2-----1-|-2-----2--2-----2-|-------1--------1-
|
|-----3--------3---|-----3--------2---|-----3--------3---|-----3--------3---
|
|---1--------1-----|---4--------3-----|---3--------3-----|---2--------2-----
|
|------------------|------------------|-1----------------|---------3--------
|
|-3--------3-------|-2--------1-------|----------4-------|-3----------------
|
1. fa     ritornare a casa e chiudersi la porta per godersi l'intimità
2. va    tutti ci portiamo dentro questo senso di impotenza così profondo e
di sottile

 Do-7/4     Fa5+ F    Sib-7            Do#7/Sol# Do#7/Sol F#
|---------1---------||------------------|-----------------|-----------------
|
|-4-----4---4--2-1--||--2-----2-------2-|-------2-------2-|-------2-------2-
|
|-----3----------2-*||------1-------1---|-----4-------4---|-----3-------3---
|
|---1------------3-*||----3-------3-----|---3-------3-----|---4-------4-----
|
|-3-----------------||--1-------1-------|-----------------|-----------------
|
|--------------1-1--||------------------|-4-------3-------|-2-------2-------
|
1.                       Ma                   chi l'ha detto che cambierà
così teneri
2. infelicità

 Re#-/C   F       Sib-7 Sib-7/Sol   F#         Fa5+ F   Sib-7
|-----------------|-----------------|---------------------|-----------------
|
|-------4-------1-|-------2-------2-|-------2--4--2-----1-|-2-----2-------2-
|
|-----3-------2---|-----3-------3---|-----3-------------2-|-----1-------1---
|
|---4-------3-----|---3-------3-----|---4------------3--3-|---3-------3-----
|
|-3---------------|-1---------------|---------------------|-1-------1-------
|
|---------1-------|---------4-------|-2-----------1-----1-|-----------------
|
i nostri figli, gli abbiamo insegnato cosa è importante la libertà.    B

 Do#7/Sol# Do#7/Sol F#                 Re#-/C   F       F#      Re#/Sol
|------------------|------------------|------------------|------------------
|
|-------2--------2-|-------2--------2-|-------4--------1-|-------2--------4-
|
|-----4--------4---|-----3--------3---|-----3--------2---|-----3--------3---
|
|---3--------3-----|---4--------4-----|---4--------3-----|---4--------1-----
|
|------------------|------------------|-3----------------|------------------
|
|-4--------3-------|-2--------2-------|----------1-------|-2--------3-------
|
siamo liberi di fare tutto, anche di spararci addosso, di distruggere e di
rubare

  Sib-7  Re#/Sol    F#      F7        Sib-     Sib-/Sol  F#      F
|-----------------|------------------||------------------|------------------
|
|-2-----2-------4-|-4-----4--4-----1-||-4-----2--4-----2-|-4-----2--1-----1-
|
|-----1-------3---|-----3--------2---||-----3--------3---|-----3--------2---
|
|---3-------1-----|---4--------1-----||---3--------1-----|---4--------3-----
|
|-1---------------|------------------||-1----------------|------------------
|
|---------3-------|-2--------1-------||----------3-------|-2--------1-------
|
e di saltare in aria in mezzo al cielo: liberi anche di non sapere

  Sib-     Sib-/Sol  F#      F              Sib-               Fa/A
|------------------|------------------||--------1--------|------------------
|
|-4-----2--4-----2-|-4-----2--1-----1-||--------2--------|--------6---------
|
|-----3--------3---|-----3--------2---||--------3--------|--------5---------
|
|---3--------1-----|---4--------3-----||--------3--------|--------3---------
|
|-1----------------|------------------||--------1--------|------------------
|
|----------3-------|-2--------1-------||-----------------|--------5---------
|
                                            Oggi vorrei scappare da questo
inferno





    Do#7/Sol#            Re#/Sol              F#              F
|------------------|-----------------|--------------------------------------
|
|--------2---------|--------4--------|--------2----------------2--1---------
|
|--------4---------|--------3--------|--------3----------------2------------
|
|--------3---------|--------1--------|--------4----------------3------------
|
|------------------|-----------------|--------------------------------------
|
|--------4---------|--------3--------|--------2----------------1------------
|
     che non si può cambiare più         questa sera proprio

    Sib-    Sib-/Sol#         F#         Fa5+ F          Sib-
|------------------|----------------------------------|------------|-------|
|
|---2---1---2------|--------4----------------2--------|-------2--4-|-------|
|
|---3----------3---|--------3----------------2--------|-----3------|-------|
|
|---3----------3---|--------4----------------3--------|---3--------|-------|
|
|---1--------------|----------------------------------|-1----------|-------|
|
|--------------4---|--------2----------------1--------|------------|-------|
|
 non mi riesce di sperare: se hai voglia provaci tu


sdello@tin.it
||Stef@no||

     
Добавлено: 13.11.2013
Другие материалы по этой песне:
  • Аккорды и текст

Страница создана 13.11.2013
http://primanota.ru/fabio-concato/provaci-tu-chords.htm
Привет, Гость.
Предлагаем пройти революционный курс по гитаре.
Подарок от PrimaNota.Ru, забирай!