PrimaNota.ru - самый крупный в мире бесплатный архив песенных текстов, аккордов, табулатур и нот


Fabio Concato - Gigi - таба, видео

Регистрация Запомнить меня
Войти через:  Facebook Google Twitter Vk Yandex Mail.ru

Fabio Concato - Gigi - таба, видео

Печатать
Просмотров: 85
		   Gigi
(Fabio Concato)


  Do7/4                          Sib7+                       Sidim
||-----------|------------||---------------------------|------------------|
||-----------|------------||-----6---------------------|----6-------------|
||-----------|------------||-----7---------------------|----7-------------|
||-----------|------------||-----8---------------------|----6-------------|
||-----------|------------||---------------------------|------------------|
||-----------|------------||-----6---------------------|----7-------------|
                   Era il tempo che cominciavo a sentire musica

    Fa/A                                         Dm7
|-----------------------------------------|--------5----------------------|
|-----6-----------------------------------|--------6--------6-------------|
|-----5-----------------------------------|--------5--------5-------------|
|-----5-----------------------------------|-----------------7-------------|
|-----0-----------------------------------|--------5--------5-------------|
|-----------------------------------------|-------------------------------|
 ascoltavo un signore che aveva una voce così                          non

   Sol-                                   Sib-7 Sib-6
|----------------------------------------|--5-----------------------------|
|----------------------------------------|--6----8------------------------|
|---3------------------------------------|--6----6------------------------|
|---5------------------------------------|-------5------------------------|
|---5------------------------------------|--------------------------------|
|---3------------------------------------|--6----6------------------------|
capivo che lingua parlasse ma mi era simpatica,

     Am                               Do/D Dm7
|----------------------------------|--------------------------------------|
|-----5----------------------------|-----5----6---------------------------|
|-----5----------------------------|-----5----5---------------------------|
|-----7----------------------------|-----5----7---------------------------|
|----------------------------------|-----5----5---------------------------|
|-----5----------------------------|--------------------------------------|
 e riempiva la stanza di note e poesia                     e tu eri lì con

  Re-/B      La5+/Sol Sib13              Do/E  Dm7        C6 Re-7/C
|-----------1---|--5----3-----------|--------0----1-------|---0-----1-----|
|--------3------|--6----2-----------|--------1----1-------|---1-----1-----|
|-----2---------|--6----0-----------|--------0----2-------|---2-----2-----|
|---------------|--5----------------|-------------0-------|---------------|
|--2------------|-------1-----------|---------------------|---3-----3-----|
|---------------|-------------------|--------0------------|---------------|
   me                         che cercavi di insegnarmela

     Sol-7      Am7           Sib7+                Sol-7      Am7
|----------------------------|--------1--------|--------------------------|
|-----3----------5-----------|-----------3-----|-----3----------5---------|
|-----3----------5-----------|-----2--------2--|-----3----------5---------|
|-----3----------5-----------|-----------------|-----3----------5---------|
|----------------------------|--1--------------|--------------------------|
|-----3----------5-----------|-----------------|-----3----------5---------|
E dicevi hai le mani ancora piccole           ma che accordi complicati ha


     Sib7+             Sol-7      Am7      Sib-9 Sib-7 Do#/A# Sib13
|--------1-----1--|------------------------|---8-----8--6---|--4---4----3-|
|-----------3-----|-----3----------5-------|---6--6-----6---|--6---6----2-|
|-----2-----------|-----3----------5-------|---6--------6---|--6--------0-|
|-----------------|-----3----------5-------|----------------|-------------|
|--1--------------|------------------------|----------------|-----------1-|
|-----------------|-----3----------5-------|---6--------6---|--6----------|
il Sudamerica      certo che a vedere te sembrava facile

      Sol-7add9                      Sib7+/C           Sol-9
|-----------------------5--------|---------------5------------------5----||
|-----------------3--------------|------------6-----6------------3-------||
|-------------3-------------3----|---------3------------------3----------||
|---------3----------------------|------3------------------3-------------||
|--------------------------------|---3------------------3----------------||
|-----3--------------------------|---------------------------------------||
era il tempo che cominciavo a sentire musica                insieme a te

    F                 F9               Sol7
||---1---1-----1---1---------3--------|---------------------------3-------|
||---1---1-----1---1------------1-----|---6---6-----6---6------------6----|
||---2---2-----2---2------2-----------|---4---4-----4---4------4----------|
||---3------3----------3--------------|---3---3-----3---3-----------------|
||------------------------------------|-----------------------------------|
||------------------------------------|---3------3----------3-------------|

     F                 F9               Sol7
|----1---1-----1---1---------3--------|---------------------------3------||
|----1---1-----1---1------------1-----|---6---6-----6---6------------6---||
|----2---2-----2---2------2-----------|---4---4-----4---4------4---------||
|----3------3----------3--------------|---3---3-----3---3----------------||
|-------------------------------------|----------------------------------||
|-------------------------------------|---3------3----------3------------||

    Sib7+                                Sidim
||-----------------|------------------|----------------|------------------|
||---6---6------6--|--6--6-----6--6---|--6---6------6--|--6--6-----6--6---|
||*--7---7------7--|--7--7-----7--7---|--7---7------7--|--7--7-----7--7---|
||*--8---8------8--|--8--8-----8--8---|--6---6------6--|--6--6-----6--6---|
||-----------------|------------------|----------------|------------------|
||---6------6------|--6-----6---------|--7------7------|--7-----7---------|
1. Ti ricordi quella velina sopra il pettine                     ci cantavo
2. (intermezzo strumentale)
3. Ma da quando tu sei partito non c'è più musica            Sta tranquillo

    Fa/A                               Dm7
|------------------|-----------------|--5---5-------5--|--5--5-----5--5---|
|---6---6-------6--|--6--6-----6--6--|--6---6-------6--|--6--6-----6--6---|
|---5---6-------6--|--6--6-----6--6--|--5---5-------5--|--5--5-----5--5---|
|---5---5-------5--|--5--5-----5--5--|-----------------|------------------|
|---0-------0------|--0-----0--------|--5-------5------|--5-----5---------|
|------------------|-----------------|-----------------|------------------|
1. e venivano suoni un po' kazoo               tu suonavi Bill Evans e
2. (intermezzo strumentale)
3. lo so che col tempo mi passerà              scrivo molto ma quello che

    Sol-9                                Sib-9            sib-
|---5---5-------5--|--5--5-----5--5---|--8---8------8--|--6--6-----6--6---|
|---3---3-------3--|--3--3-----3--3---|--6---6------6--|--6--6-----6--6---|
|---3---3-------3--|--3--3-----3--3---|--6---6------6--|--6--6-----6--6---|
|------------------|------------------|----------------|------------------|
|------------------|------------------|----------------|------------------|
|---3-------3------|--3-----3---------|--6------6------|--6-----6---------|
1. dicevi quest'uomo è un fenomeno
2. (intermezzo strumentale)
3. scrivo è così malinconico

   Am7                                 Do/D             Dm7
|------------------|-----------------|-----------------|------------------|
|---8---8-------8--|--8--8-----8--8--|--5---5-------5--|--6--6-----6--6---|
|---5---5-------5--|--5--5-----5--5--|--5---5-------5--|--5--5-----5--5---|
|---5---5-------5--|--5--5-----5--5--|--5---5-------5--|--7--7-----7--7---|
|------------------|-----------------|--5-------5------|--5-----5---------|
|---5-------5------|--5-----5--------|-----------------|------------------|
1.  certamente ma qui ce n'è un altro e sei proprio tu.    E stavi lì con
2. (intermezzo strumentale)                                Adesso sono
3. come questa canzone: chissà se ti piacerà               Dimmi dove

    Re-/B                             Sib-
|---1---1------1--|---1--1-----1--1--|-----------------|------------------|
|---3---3------3--|---3--3-----3--3--|--6---6-------6--|--6--6-----6--6---|
|---2---2------2--|---2--2-----2--2--|--6---6-------6--|--6--6-----6--6---|
|-----------------|------------------|--6---6-------6--|--6--6-----6--6---|
|---2-------2-----|---2-----2--------|-----------------|------------------|
|-----------------|------------------|--6-------6------|--6-----6---------|
1. me                                        a giocare con la
2. grande                                    è un bel lavoro fare
3. sei                                       suoni ancora ma per gli

   Do/D              Dm7              C6              Re-7/C
|---0---0-------0--|--1--1-----1--1--|--0---0-------0--|--1--1-----1--1---|
|---1---1-------1--|--1--1-----1--1--|--1---1-------1--|--1--1-----1--1---|
|---0---0-------0--|--2--2-----2--2--|--2---2-------2--|--2--2-----2--2---|
|---0-------0------|--0-----0--------|-----------------|------------------|
|------------------|-----------------|--3-------3------|--3-----3---------|
|------------------|-----------------|-----------------|------------------|
1.  musica
2.  musica
3.  angeli

    Sol-7             Am7             Sib7+
|------------------|-----------------|-----------------|------------------|
|---3---3-------3--|--5--5-----5--5--|--3---3-------3--|--3--3-----3---3--|
|---3---3-------3--|--5--5-----5--5--|--2---2-------2--|--2--2-----2---2--|
|---3---3-------3--|--5--5-----5--5--|--3---3-------3--|--3--3-----3---3--|
|------------------|-----------------|--1-------1------|--1-----1---------|
|---3-------3------|--5-----5--------|-----------------|------------------|
1. e la ia vita pensavo forse è questa qui
2. sempre in giro come adesso che stò a Napoli
3. e ti siederanno intorno e li farai cantare


    Sol-7             Am7             Sib7+
|------------------|-----------------|-----------------|------------------|
|---3---3-------3--|--5--5-----5--5--|--3---3-------3--|--3--3-----3--3---|
|---3---3-------3--|--5--5-----5--5--|--2---2-------2--|--2--2-----2--2---|
|---3---3-------3--|--5--5-----5--5--|--3---3-------3--|--3--3-----3--3---|
|------------------|-----------------|--1-------1------|--1-----1---------|
|---3-------3------|--5-----5--------|-----------------|------------------|
1. ma tu giurami che un giorno suonerò così
2. se vedessi quanto affetto non lo immagini
3. suona così forte così ti potrò sentire

   Sol-7             Am7             Sib-9             Sib-7
|------------------|-----------------|--8---8-------8--|--6--6-----6--6---|

|---3---3-------3--|--5--5-----5--5--|--6---6-------6--|--6--6-----6--6---|
|---3---3-------3--|--5--5-----5--5--|--6---6-------6--|--6--6-----6--6---|
|---3---3-------3--|--5--5-----5--5--|-----------------|------------------|
|------------------|-----------------|-----------------|------------------|
|---3-------3------|--5-----5--------|--6-------6------|--6-----6---------|
1. Suoni così bene che mi vien da ridere
2. E' una festa e poi sentissi come cantano
3. Noi quaggiù col naso in su  a capire cosa sia

   Do#/A#           Sib13              Sol-7
|---4---4-------4--|--3--3-----3--3--|-----------------|------------------|
|---6---6-------6--|--2--2-----2--2--|--3---3-------3--|--3--3-----3--3---|
|---6---6-------6--|--0--1-----1--1--|--3---3-------3--|--3--3-----3--3---|
|------------------|-----------------|--3---3-------3--|--3--3-----3--3---|
|------------------|--1-----1--------|-----------------|------------------|
|---6-------6------|-----------------|--3-------3------|--3-----3---------|
1.                                   Era il tempo in cui cominciavo ad amar
2.                                   Che sorpresa vederti arrivare ma un po'
3.                                   Sarà il tempo in cui finalmente farai

                                      __
   Sib7+/C                          |1.  Sib7+
|---5---5-------5--|--5--5-----5--5-||-----------------|------------------|
|---6---6-------6--|--6--6-----6--6-||---1---1------1--|--1--1-----1--1---|
|---3---3-------3--|--3--3-----3--3-||---2---2------2--|--2--2-----2--2---|
|------------------|----------------||---3---3------3--|--3--3-----3--3---|
|---3-------3------|--3-----3-------||-----------------|------------------|
|------------------|----------------||---1-------1-----|--1-----1---------|
1. la musica e amavo te
2. ti aspettavo siediti qui
3. il tuo concerto anima mia

    D#                                  Sib7+
|------------------|------------------|----------------|------------------|
|---4---4-------4--|--4--4-----4--4---|--6---6------6--|--6--6-----6---6--|
|---3---3-------3--|--3--3-----3--3---|--7---7------7--|--7--7-----7---7--|
|---5---5-------5--|--5--5-----5--5---|--8---8------8--|--8--8-----8---8--|
|---6-------6------|--6-----6---------|----------------|------------------|
|------------------|------------------|--6-------6-----|--6-----6---------|

                                       __
    Sib-                              |2.  F
|------------------|-----------------||----------------|------------------|
|---6---6-------6--|--6--6-----6--6--||--1---1------1--|--1--1-----1--1---|
|---6---6-------6--|--6--6-----6--6-*||--2---2------2--|--2--2-----2--2---|
|---8---8-------8--|--8--8-----8--8-*||--3---3------3--|--3--3-----3--3---|
|------------------|-----------------||----------------|------------------|
|---6-------6------|--6-----6--------||--1-------1-----|--1-----1---------|


                                       __
   Sol7                               |3.   F
|-----------------|------------------||-----------------|-----------------|
|---7---7------7--|--7--7-----7--7---||---1---1-----1---|--1--1-----1--1--|
|---4---4------4--|--4--4-----4--4--*||---2---2-----2---|--2--2-----2--2--|
|---3---3------3--|--3--3-----3--3--*||---3---3-----3---|--3--3-----3--3--|
|-----------------|------------------||-----------------|-----------------|
|---3-------3-----|--3-----3---------||---1------1------|--1-----1--------|

   D#                                   Sib7+
|------------------|------------------|----------------|------------------|
|--4---4-------4---|--4--4-----4--4---|---6---6-----6--|--6--6-----6--6---|
|--3---3-------3---|--3--3-----3--3---|---7---7-----7--|--7--7-----7--7---|
|--5---5-------5---|--5--5-----5--5---|---8---8-----8--|--8--8-----8--8---|
|--6-------6-------|--6-----6---------|----------------|------------------|
|------------------|------------------|---6------6-----|--6-----6---------|

  Sib-
|--------------|-----------------||
|--6--6-----6--|--6--6-----6--6--||
|--6--6-----6--|--6--6-----6--6--|| ad libitum
|--8--8-----8--|--8--8-----8--8--||
|--------------|-----------------||
|--6-----6-----|--6-----6--------||


Trascrizione
||Stef@no||
sdello@tin.it

     
Добавлено: 05.10.2013
Другие материалы по этой песне:
  • Аккорды и текст

Страница создана 05.10.2013
http://primanota.ru/fabio-concato/gigi-chords.htm
Привет, Гость.
Предлагаем пройти революционный курс по гитаре.
Подарок от PrimaNota.Ru, забирай!