PrimaNota.ru - самый крупный в мире бесплатный архив песенных текстов, аккордов, табулатур и нот


F-minus - Wake Up Screaming - бас-таба, видео

Регистрация Запомнить меня
Войти через:  Facebook Google Twitter Vk Yandex Mail.ru

F-minus - Wake Up Screaming - бас-таба, видео

Печатать
Просмотров: 219
Уроки эстрадного вокала в Санкт-Петербурге
F-Minus - Wake Up Screaming

INTRO

G-------------------------|-------------------------|
D-------------------------|-------------------------|
A-------------------------|-------------------------|
E-1----1----1-------------|-1----1----1-------------|

G-------------------------|-------------------------|
D-------------------------|-------------------------|
A-------------------------|-------------------------|
E-1----1----1-------------|-1----1----1-------------|

G-------------------------|-------------------------|
D-------------------------|-------------------------|
A-------------------------|-------------------------|
E-1--1--1----1--1--1------|-1--1--1-----1--1--1-----|

G-------------------------|-------------------------|
D-------------------------|-------------------------|
A-------------------------|-------------------------|
E-1--1--1----1--1--1------|-1--1--1-----1--1--1-----|

Pre-Verse:

G----------------------|-------------------------|
D----------------------|-------------------------|
A----------------------|-------------------------|
E-1--1---1-4--4---4----|-3--3---3--0--0----0-----| x2

Verse:

G----------------------|-------------------------|
D----------------------|-------------------------|
A----------------------|-------------------------|
E-1--1---1-4--4---4----|-3--3---3--0--0----0-----| x6

Chorus:

G----------------------|----------------------|
D----------------------|----------------------|
A----------------------|----------------------|
E-1--1---1-3--4---4----|-1--1---1-3--4---4----| x2

G-------------------------|-------------------------|
D-------------------------|-------------------------|
A-------------------------|-------------------------|
E-1----1----1-------------|-1----1----1-------------|

Pre-Verse:

G----------------------|-------------------------|
D----------------------|-------------------------|
A----------------------|-------------------------|
E-1--1---1-4--4---4----|-3--3---3--0--0----0-----| x2

Verse:

G----------------------|-------------------------|
D----------------------|-------------------------|
A----------------------|-------------------------|
E-1--1---1-4--4---4----|-3--3---3--0--0----0-----| x6

Chorus:

G----------------------|----------------------|
D----------------------|----------------------|
A----------------------|----------------------|
E-1--1---1-3--4---4----|-1--1---1-3--4---4----| x2

G-------------------------|-------------------------|
D-------------------------|-------------------------|
A-------------------------|-------------------------|
E-1----1----1-------------|-1----1----1-------------|

Breakdown: No bass for first 4 bars

G----------------------|-------------------------|
D----------------------|-------------------------|
A----------------------|-------------------------|
E-1--1---1-4--4---4----|-3--3---3--0--0----0-----| x4

Guitar solo:

G----------------------|-------------------------|
D----------------------|-------------------------|
A----------------------|-------------------------|
E-1--1---1-4--4---4----|-3--3---3--0--0----0-----| x4


Chorus:

G----------------------|----------------------|
D----------------------|----------------------|
A----------------------|----------------------|
E-1--1---1-3--4---4----|-1--1---1-3--4---4----| x2

Outro:

G-------------------------|--------------------|----|
D-------------------------|--------------------|----|
A-------------------------|--------------------|----|
E-1----1----1-------------|-1----1----1--------|-1--|
Добавлено: 04.08.2015
Другие материалы по этой песне:
  • Аккорды и текст

Страница создана 04.08.2015
http://primanota.ru/f-minus/wake-up-screaming-chords.htm
Привет, Гость.
Предлагаем пройти революционный курс по гитаре.
Подарок от PrimaNota.Ru, забирай!