PrimaNota.ru - самый крупный в мире бесплатный архив песенных текстов, аккордов, табулатур и нот


F Minus - Cant Tell No One - таба, видео

Регистрация Запомнить меня
Войти через:  Facebook Google Twitter Vk Yandex Mail.ru

F Minus - Cant Tell No One - таба, видео

Печатать
Просмотров: 103
Уроки эстрадного вокала в Санкт-Петербурге
F-Minus - "Can't Tell No One"
Won't Bleed Me / Failed Society

by Redrain87

Gtr I (E A D G B E)

Intro:
                                                     4x
E|--------------------------|-------------------------|
B|--------------------------|-------------------------|
G|--------------------------|-------------------------|
D|-10-/11-11-11-11-11-11-11-|-11-11-11-11-11-11-11-11-|
A|-10-/11-11-11-11-11-11-11-|-11-11-11-11-11-11-11-11-|
E|--8--/9--9--9--9--9--9--9-|--9--9--9--9--9--9--9--9-|

Verse:

E|---------------------|-----------------------------|
B|---------------------|-----------------------------|
G|-------------11------|-------------11--------------|
D|-11-11-11-11-11--11--|-11-11-11-11-11--11--7-7-7-7-|
A|-11-11-11-11--9--11--|-11-11-11-11--9--11--7-7-7-7-|
E|--9--9--9--9------9--|--9--9--9--9------9--5-5-5-5-|

                             2x (including above)
E|-----------------|----------|
B|-----------------|----------|
G|-----------------|----------|
D|-7-7-7-7-9-9-9-9-|-9-9-9-9--|
A|-7-7-7-7-9-9-9-9-|-9-9-9-9--|
E|-5-5-5-5-7-7-7-7-|-7-7-7-7--|

Chorus:
                                  4x
E|---------------|-----------------|
B|---------------|-----------------|
G|---------7-----|---------9-------|
D|-7-7-7-7-7--7--|-9-9-9-9-9-9-----|
A|-7-7-7-7-5--7--|-9-9-9-9-7-9-----|
E|-5-5-5-5----5--|-7-7-7-7---7-----|

Bridge:
                                                     2x
E|--------------------------|-------------------------|
B|--------------------------|-------------------------|
G|--------------------------|-------------------------|
D|-10-/11-11-11-11-11-11-11-|-11-11-11-11-11-11-11-11-|
A|-10-/11-11-11-11-11-11-11-|-11-11-11-11-11-11-11-11-|
E|--8--/9--9--9--9--9--9--9-|--9--9--9--9--9--9--9--9-|

Verse:

E|---------------------|-----------------------------|
B|---------------------|-----------------------------|
G|-------------11------|-------------11--------------|
D|-11-11-11-11-11--11--|-11-11-11-11-11--11--7-7-7-7-|
A|-11-11-11-11--9--11--|-11-11-11-11--9--11--7-7-7-7-|
E|--9--9--9--9------9--|--9--9--9--9------9--5-5-5-5-|

                             2x (including above)
E|-----------------|----------|
B|-----------------|----------|
G|-----------------|----------|
D|-7-7-7-7-9-9-9-9-|-9-9-9-9--|
A|-7-7-7-7-9-9-9-9-|-9-9-9-9--|
E|-5-5-5-5-7-7-7-7-|-7-7-7-7--|

Chorus:
                                  4x
E|---------------|-----------------|
B|---------------|-----------------|
G|---------7-----|---------9-------|
D|-7-7-7-7-7--7--|-9-9-9-9-9-9-----|
A|-7-7-7-7-5--7--|-9-9-9-9-7-9-----|
E|-5-5-5-5----5--|-7-7-7-7---7-----|

Bridge:
                                                     4x
E|--------------------------|-------------------------|
B|--------------------------|-------------------------|
G|--------------------------|-------------------------|
D|-10-/11-11-11-11-11-11-11-|-11-11-11-11-11-11-11-11-|
A|-10-/11-11-11-11-11-11-11-|-11-11-11-11-11-11-11-11-|
E|--8--/9--9--9--9--9--9--9-|--9--9--9--9--9--9--9--9-|

Verse:

E|---------------------|-----------------------------|
B|---------------------|-----------------------------|
G|-------------11------|-------------11--------------|
D|-11-11-11-11-11--11--|-11-11-11-11-11--11--7-7-7-7-|
A|-11-11-11-11--9--11--|-11-11-11-11--9--11--7-7-7-7-|
E|--9--9--9--9------9--|--9--9--9--9------9--5-5-5-5-|

                             2x (including above)
E|-----------------|----------|
B|-----------------|----------|
G|-----------------|----------|
D|-7-7-7-7-9-9-9-9-|-9-9-9-9--|
A|-7-7-7-7-9-9-9-9-|-9-9-9-9--|
E|-5-5-5-5-7-7-7-7-|-7-7-7-7--|

Chorus:
                                  4x
E|---------------|-----------------|
B|---------------|-----------------|
G|---------7-----|---------9-------|
D|-7-7-7-7-7--7--|-9-9-9-9-9-9-----|
A|-7-7-7-7-5--7--|-9-9-9-9-7-9-----|
E|-5-5-5-5----5--|-7-7-7-7---7-----|

Outro:

E|-----------------|
B|-----------------|
G|-----------------|
D|-10-/11-11-11----|
A|-10-/11-11-11----|
E|--8--/9--9--9----|
Добавлено: 13.09.2013
Другие материалы по этой песне:
  • Аккорды и текст

Страница создана 13.09.2013
http://primanota.ru/f-minus-2/cant-tell-no-one-chords.htm
Привет, Гость.
Предлагаем пройти революционный курс по гитаре.
Подарок от PrimaNota.Ru, забирай!