PrimaNota.ru - самый крупный в мире бесплатный архив песенных текстов, аккордов, табулатур и нот


EZSongLessons - Lesson Guitar - Hammer-On Pull-Off Electric Guitar Exercise 001 - таба

Регистрация Запомнить меня
Войти через:  Facebook Google Twitter Vk Yandex Mail.ru

EZSongLessons - Lesson Guitar - Hammer-On Pull-Off Electric Guitar Exercise 001 - таба

Печатать
Просмотров: 87
Уроки эстрадного вокала в Санкт-Петербурге
-------------------------------------------------------------------------------
    Hammer-On & Pull-Off Electric Guitar Exercise 001 - Pantelis Kountourakis
-------------------------------------------------------------------------------
Tabbed by: Ez Song Lessons
E-mail: Ezsonglessons@gmail.com

Tuning:E A D G B e

e|-----------------------------------------10p8p7--------------5h7h8---------|
B|-----------------------------------5h7h8--------10p8p7-5h7h8---------------|
G|-----------------------4h5h7-4h5h7-----------------------------------------|
D|-----------------4h5h7-----------------------------------------------------|
A|---------2h3h5h7-----------------------------------------------------------|
E|-0h2h3h5-------------------------------------------------------------------|

e|--------7h8h10---------8h10h12-19p17p15-17p15p14-15p14p12-14p12p10---------|
B|-7h8h10--------8h10h12-----------------------------------------------------|
G|---------------------------------------------------------------------------|
D|---------------------------------------------------------------------------|
A|---------------------------------------------------------------------------|
E|---------------------------------------------------------------------------|

e|------------------10h12h14-15p14p12-17p15p14-15p14p12-14p12p10-12p10p8-----|
B|---------10h12h13----------------------------------------------------------|
G|-9h11h12-------------------------------------------------------------------|
D|---------------------------------------------------------------------------|
A|---------------------------------------------------------------------------|
E|---------------------------------------------------------------------------|

e|----------------8h10h12-14p12p10-15p14p12-14p12p10-12p10p8-10p8p7----------|
B|--------8h10h12---------------------------------------------------10p8p7---|
G|-7h9h11--------------------------------------------------------------------|
D|---------------------------------------------------------------------------|
A|---------------------------------------------------------------------------|
E|---------------------------------------------------------------------------|

e|-------5h7h8-7h8h10-8h10h12-8p7p5------------------------------------------|
B|-5h7h8----------------------------8p7p5------------------------------------|
G|----------------------------------------7p5p4h5h7p5p4----------------------|
D|------------------------------------------------------7p5p4h5h7p5p4h5h7p5p4|
A|---------------------------------------------------------------------------|
E|---------------------------------------------------------------------------|

e|---------------------------------------------------------------------------|
B|---------------------------------------------------------------------------|
G|---------------------------------------------------------------------------|
D|---------------------------------------------------------------------------|
A|-7p5p3h5h7p5p3h5h7p5p3-5p3p2h3h5p3p2h3h5p3p2-------------------------------|
E|---------------------------------------------5p3p2h3h5p3p2-0---------------|



************************************

| /   slide up
| \   slide down
| h   hammer-on
| p   pull-off
| ~   vibrato
| +   harmonic
| x   Mute note
| b   Bend
| pb  Pre-bend
| br  Bend release
| pbr Pre-bend release
| brb Bend release bend

************************************
Добавлено: 19.06.2016
Другие материалы по этой песне:
  • Аккорды и текст

Страница создана 19.06.2016
http://primanota.ru/ezsonglessons/lesson-guitar-hammer-on-pull-off-electric-guitar-exercise-001-chords.htm
Привет, Гость.
Предлагаем пройти революционный курс по гитаре.
Подарок от PrimaNota.Ru, забирай!