PrimaNota.ru - самый крупный в мире бесплатный архив песенных текстов, аккордов, табулатур и нот


Ezo - Wild Talk - таба, видео

Регистрация Запомнить меня
Войти через:  Facebook Google Twitter Vk Yandex Mail.ru

Ezo - Wild Talk - таба, видео

Печатать
Просмотров: 125
E•Z•O - Wild Talk (Track 4)

Album: Fire Fire (1989)

Tabbed by: Lazzle22

Email: Lasse2411@hotmail.com
-----------------------------

h   - hammer-on
p   - pull-off
^   - bend
~   - vibrato
/\  - slide
X\\ - pick scrape
<3> - harmonic
X   - mute
•   - palm mute
br - Bend-release

Tuning is: A Half-step down (eb-Ab-Db-Gb-Bb-Eb)
-----------------------------------------------

INTRO (00:00)

  G1
e|-3-----0--------------------------3-----0-----|
B|-3-----5--------------------------3-----5-----|
G|-4-----4--------------------------4-----4-----|
D|-5-----2--------------------------5-----2-----|
A|-5-----2--------------------------5-----2-----|
E|-3-----0--------------------------3-----0-----|    
 |                                                 x2
 |G2               Ring out)
e|------------------0-----0-----0---0-0-0-0-----|
B|----------------------------------x-x-x-x-----|
G|---------7/9\7------7-----7-------9-9-9-9/----|
D|----------------6-----6-----6-----------------|
A|----------------------------------------------|
E|----------------------------------------------|


  G1
e|-3-----3------------------------------------|
B|-3-----3------------------------------------|
G|-4-----6------------------------------------|
D|-5-----7------------------------------------|
A|-5-----7------------------------------------|
E|-3-----5------------------------------------|    
 |                                                 x2
 |G2               Ring out)
e|------------------0-------------------------|
B|-------------------------8br---12-12^14~~---|
G|---------7/9\6------6-------6---------------|
D|----------------5-----5---------------------|
A|--------------------------------------------|
E|--------------------------------------------|

e|---------|---------|
B|---------|---------|
G|---------|---------|
D|---5/----|---------|
A|---5/----|---------|
E|---3/----|---1x//--| 
           (Scrape upwards)


PRE-VERSE RIFF (00:17)

e|---------------------|
B|---------------------|
G|-----12~------12/14--|
D|-----12~------12/14--| x3
A|---------------------|
E|-0-0-----0-00--------|

e|--------------|
B|--------------|
G|-----7---8----|
D|-----7---8----|
A|-----5---6----|
E|-00-----------|

VERSE (00:24)

e|--------------------------------------------------|
B|--9------7----------------------------------------|
G|--9------7----------------------------------------|
D|--9------7----------------------------------------|
A|--7------5----------------------------------------|
E|-----------///--0-0-3~-0-00-3-5-0-0-3~-0-00-3-5---|
                                                       x2
e|--------------------------------------------------|
B|--9-------7---------------------------------------|
G|--9-----9-7---------------------------------------|
D|--9-------7---------------------------------------|
A|--7---7---5---------------------------------------|
E|------------///--0-0-3~-0-00-3-5-0-0-3~-0-00-3-5--|

BRIDGE (00:54)

e|-----------------------------------|
B|---5------7----8~-------8/10-8~----|
G|-5-5----7-7----7~-------7/9--7~----|
D|-5-5----7-7------------------------|
A|-3-3----5-5------------------------|
E|-------------------0-00------------|

e|-----------------------------------|
B|---5------7------7----7-7--7-7--7--|
G|-5-5----7-7----5-5----7-7--7-7--7--|
D|-5-5----7-7----5-5----7-7--7-7--7--|
A|-3-3----5-5----3-3----5-5--5-5--5--|
E|-----------------------------------|

CHORUS (01:10)
 
 "Wild talk!"
e|---------------------------------|
B|--------------------5------------|
G|---------7/9~-------5------7-7---|
D|---5-----7/9~--------------7-7---|
A|---5-----------3--3----5-5-------|
E|-0-3--0--------------------------|
                                     x2
e|---------------------------------|
B|---------------------5-----------|
G|------7/9--/12~------5------7-7--|
D|------7/9--/12~-------------7-7--|
A|-----------------3--3---5-5------|
E|-0-0-----------------------------|

PRE-VERSE RIFF (01:25)

e|---------------------------------|
B|---------------------------------|
G|---------------------------7---8-|
D|---------------------------7---8-|
A|---------------------------5---6-|
E|-0-0-3~-0-00-3-5-0-0-3~-00-------|


VERSE (01:30)

BRIDGE (02:00)

CHORUS (02:15)

BRIDGE INTO SOLO (02:30)

e|----------------------|
B|------------5------7--|
G|-----7/9~---5------7--|
D|-----7/9~---5------7--|
A|------------3------5--|
E|-0-0------------------|

e|-----------------------------------|
B|-----------------------------------|
G|-----------------------------------|
D|-----------------------------------| x3
A|-----------------------------------|
E|-0-00-12-0---0-0-0h7h10--0-00-12p0-|

SOLO (02:45)

Sorry, no solo. I'm too lazy :|

RHYTHM UNDERNEATH SOLO

(G2 only)
  (strum as you see fit)
e|---------------------------|
B|---------------------------|
G|------5-6-7----5---3-----5-|
D|-3----5-6-7----5---3-----5-|
A|-3----3-4-5----3---1-----3-|
E|-1-------------------------|

e|--------------------------------------|
B|--------------------------------------|
G|------5-6-7----5---3-----5-5-5-5-5-5--|
D|-3----5-6-7----5---3------------------|
A|-3----3-4-5----3---1-----3-3-3-3-3-3--|
E|-1------------------------------------|

e|----------------------|
B|----------------------|
G|----------------------|
D|-0-00-3-0-0--0-0-3-5--| x3
A|----------------------|
E|----------------------|

e|-------------------|
B|-------------------|
G|-------------7--8--|
D|-0-00-3-0-0--7--8--|
A|-------------5--6--|
E|-------------------|

HALF A VERSE (03:08)

BRIDGE (03:23)

CHORUS (03:39)

FADE OUT

----------------------------------------------------
Wild Talk by the influental japanese heavy metal band
E•Z•O (or just EZO, if you don't know how to use the
awesome numlock keys. • <-)

This band is amazing, they only made 2 albums before they disbanded though,
but even so, those 2 albums manages to catch that awesome sound of early  japanese 
heavy and/or glam metal bands perfectly. It's pristine! Buy them!

Since the band disbanded in early 1990 they don't have a website,
but here is the wiki: http://en.wikipedia.org/wiki/Ezo_%28band%29
Добавлено: 23.05.2012
Другие материалы по этой песне:
  • Аккорды и текст

Страница создана 23.05.2012
http://primanota.ru/ezo/wild-talk-chords.htm
Привет, Гость.
Предлагаем пройти революционный курс по гитаре.
Подарок от PrimaNota.Ru, забирай!