PrimaNota.ru - самый крупный в мире бесплатный архив песенных текстов, аккордов, табулатур и нот


Ezo - Love Junkie - таба, видео

Регистрация Запомнить меня
Войти через:  Facebook Google Twitter Vk Yandex Mail.ru

Ezo - Love Junkie - таба, видео

Печатать
Просмотров: 116
Уроки эстрадного вокала в Санкт-Петербурге
E•Z•O - Love Junkie (Track 1)

Album: Fire Fire (1989)

Tabbed by: Lazzle22

Email: Lasse2411@hotmail.com
-----------------------------

h   - hammer-on
p   - pull-off
^   - bend
~   - vibrato
/\  - slide
X\\ - pick scrape
<3> - harmonic
X   - mute
•   - palm mute
br  - Bend-release
~-9-10-10b-10-9-9-7~-----7~--|
D|-/7~--10-7-10----------------------------10-----|
A|------------------------------------------------|
E|------------------------------------------------|
        •  •  • 

e|-----------------------------------8--10~---10br-8--|
B|--------------------------------8b------------------|
G|--------------7-9-10br-10p9-9~----------------------|
D|----7-10-7-10---------------------------------------|
A|-10-------------------------------------------------|
E|----------------------------------------------------|

e|-8p7--------------------------------------| *notice the space between
B|-----8-br-----------------------5---------|  the note and the "br",
G|----------7-br--5-br--4-5-4-5-7b--7bp5----|  there should be a small
D|---------------------------------------7--|  delay from hitting the note
A|------------------------------------------|  till you do the br*
E|------------------------------------------|

e|-15-17-20br-19-17--17-----|
B|-------------------20b~---|
G|--------------------------|
D|--------------------------|
A|--------------------------|
E|--------------------------|

e|-22-17-------------22-17-------------|
B|-------20-17-------------20-17-------|
G|-------------19-17-------------19-17-|
D|-------------------------------------| *Thise goes extremely fast,
A|-------------------------------------|  so you might wanna add 
E|-------------------------------------|  some pull offs in there*

e|-20-17---------------|
B|-------20-17---------|
G|-------------19-17---|
D|---------------------| x7
A|---------------------|
E|---------------------|

e|-------------------19-20-22b~--22~--19-20-22--20-19--22~---17~--|
B|----------18-20-22-----------------------------------22b~--17~--|
G|-17-19-21-------------------------------------------------------|
D|----------------------------------------------------------------|
A|----------------------------------------------------------------|
E|----------------------------------------------------------------|

RHYTHM UNDERNEATH SOLO

e|---------|----------------------------------|
B|---------|----------------------------------|
G|---------|-2-2-2-2-4-4-4-4-5-5-5-5-7-7-7-7--|
D|-3----5--|----------------------------------| x2
A|-3----5--|-0-0-0-0-2-2-2-2-3-3-3-3-5-5-5-5--|
E|-1----3--|----------------------------------|

e|------------------|-5--------------------------------|
B|------------------|-3--------------------------------|
G|-2-2-2-2-4-4-4-4--|-2-----4--------------------------|
D|------------------|-2-2-2-5--------------------------|
A|-0-0-0-0-2-2-2-2--|-0-0-0-5-5-5-5-5-7-7-7-7-7-7-777--|
E|------------------|-------3-3-3-3-3-5-5-5-5-5-5-555--|
                        • •   • • • • • • • • • • 


BRIDGE (03:38)

CHORUS (03:58)

OUTRO (04:33)

  G1
e|-----------------------------------------------------------------|
B|-----------------------------------------------------------------|
G|-------5-7---6--7/5--------5-7---6--7/5--------5-7---6-7/5-------|
D|-7-----5-7---6--7/5---7----5-7---6--7-5---7----5-7---6-7/5---7/--| 
A|-7--0------0----------7--0-----0----------7--0-----0---------7/--|
E|-5--------------------5-------------------5------------------5/--|
 |  
 |G2
e|-----------------------------------------------------------------|
B|-----------------------------------------------------------------|
G|-----------------------------------------------------6-7/5-------|
D|-7/-------------------7/------------------7/---------6-7/5---7/--|
A|-7/-------------------7/------------------7/-------0---------7/--|
E|-5/-------------------5/------------------5/-----------------5/--|

-----------------------------------------------------------------------
Love Junkie by EZO. 
The solo is probably not 100% correct, and it's always hard to transcribe
those blues-lick soloes with their time feelings and bends unless you use
Guitar Pro or some other program, but it should be alright.

I also stated on my previous tabs, that they've only made 2 albums.
This is a mistake, they've made 4 albums, but the 2 first was under the
name "Flatbacker"
Добавлено: 30.07.2012
Вам также может быть интересно:
Другие материалы по этой песне:
  • Аккорды и текст

Страница создана 30.07.2012
http://primanota.ru/ezo/love-junkie-chords.htm
Привет, Гость.
Предлагаем пройти революционный курс по гитаре.
Подарок от PrimaNota.Ru, забирай!