PrimaNota.ru - самый крупный в мире бесплатный архив песенных текстов, аккордов, табулатур и нот


Ezo - Back To Zero - таба, видео

Регистрация Запомнить меня
Войти через:  Facebook Google Twitter Vk Yandex Mail.ru

Ezo - Back To Zero - таба, видео

Печатать
Просмотров: 153
Уроки эстрадного вокала в Санкт-Петербурге
E•Z•O - Back to Zero

Tabbed by: Lazzle22

Email: Lasse2411@hotmail.com
-----------------------------

h      - hammer-on
p      - pull-off
^ or b - bend
~      - vibrato
/\     - slide
X\\    - pick scrape
<3>    - harmonic
X      - mute
•      - palm mute
br     - bend release

Tuning is: A Half-step down (eb-Ab-Db-Gb-Bb-Eb)
-----------------------------------------------

INTRO (00:00)

e|----------------------------------------------------|
B|----------------------------------------------------|
G|---7/9--14--13-----13-13-13/11--11-11-11/9--7/9--6--|
D|----------------------------------------------------|
A|---5/7--12--11-----11-11-11/9----9--9--9/7--5/7--4--|
E|-0-------0---0----0--0--0--0----0--0--0----0----0---|

e|---------------------------------|
B|--------------------------5---7--|
G|---7/9--14--13------------5---7--|
D|------------------5---7---5---7--|
A|---5/7--12--11----5---7---3---5--|
E|-0-------0---0----3---5----------|

e|----------------------------------------------|
B|----------------------------------------------|
G|-9-7-8-9---7-8-9-7-8-9---7-8-9-7-8-9--7-8-9/--|
D|-9-7-8-9---7-8-9-7-8-9---7-8-9-7-8-9--7-8-9/--|
A|----------------------------------------------|
E|----------------------------------------------|

VERSE (00:22)
 
 (slight palm mute)
e|------------------------------------|
B|------------------------------------|
G|------------------------------------|
D|------------------------------------|
A|------------------------------------|
E|-0-10-12-0-9-10-0-3-5-0-3-5-0-9-10--|

e|------------------------------------|
B|------------------------------------|
G|------------------------------------|
D|------------------------------------|
A|------------------------------------|
E|-0-10-12-0-9-10-0-3-5--0-3-5--0-3-5-|

e|------------------------------------|
B|------------------------------------|
G|------------------------------------|
D|------------------------------------|
A|------------------------------------|
E|-0-10-12-0-9-10-0-3-5-0-3-5-0-9-10--|

e|--------------------------------------|
B|--------------------------------------|
G|--------------------------------------|
D|--------------------------------------|
A|--------------------------------3-2---|
E|-0-10-12-0-9-10-0-3-5--0-3-5--0-----3-|

e|------------------------------------|
B|------------------------------------|
G|------------------------------------|
D|------------------------------------|
A|------------------------------------|
E|-0-10-12-0-9-10-0-3-5-0-3-5-0-9-10--|

e|------------------------------------|
B|------------------------------------|
G|------------------------------------|
D|------------------------------------|
A|------------------------------------|
E|-0-10-12-0-9-10-0-3-5--0-3-5--0-3-5-|

e|------------------------------------|
B|------------------------------------|
G|------------------------------------|
D|------------------------------------|
A|------------------------------------|
E|-0-10-12-0-9-10-0-3-5-0-3-5-0-9-10--|

e|------------------------------------|
B|------------------------------------|
G|------------------------------------|
D|------------------------------------|
A|------------------------------------|
E|-0-10-12-0-9-10-0-0-3-5-5-4-3-------|

x2 (Play the same again, but the last one, which is now)

e|------------------------------------|
B|------------------------------------|
G|------------------------------------|
D|---------------------<7-7-6-5>------|*semi harmonics*
A|------------------------------------|
E|-0-10-12-0-9-10-0-0-3---------------|

CHORUS (01:07)

e|------------------------------------|
B|-5----7-----------------------------|
G|-5----7----9-7-8-9--7-8-9-7-8-9/----|
D|-5----7----9-7-8-9--7-8-9-7-8-9/----| x3
A|-3----5-----------------------------|
E|------------------------------------|

e|-----------5/3~----------------|
B|-----------5/3~----------------|
G|-------------------------------|
D|-5----7-7--------2-------------|
A|-5----7-7--------2------x///---|
E|-3----5-5--------0------x///---|

VERSEx1 (01:32)

CHORUS (01:54)

e|------------------------------------|
B|-5----7-----------------------------|
G|-5----7----9-7-8-9--7-8-9-7-8-9/----|
D|-5----7----9-7-8-9--7-8-9-7-8-9/----| x3
A|-3----5-----------------------------|
E|------------------------------------|

e|-----------------------|
B|---5--------7--<5>/----|
G|-5-5------7-7----------|*This is actually
D|-5-5------7-7----------| a dive bomb, but
A|-3-3------5-5----------| a <5> works fine*
E|-----------------------|

SOLO (02:16)

  (Not exact number of strokes)
e|----------------------------------------------------------------|
B|------17-17-17-17--15-15-15-15--14-14-12-12-14-14-15-15-17-17---|
G|----------------------------------------------------------------|
D|------14-14-14-14--12-12-12-12--11-11-9--9--11-11-12-12-14-14---|
A|-x//------------------------------------------------------------|
E|-x//------------------------------------------------------------|

e|--15--------14-----10-----12------12-------------12-------15^17-|
B|--18^20~----17^19~-13^15~-15^17^-----12-------12----15^17-------|
G|----------------------------------------14^16-------------------|
D|----------------------------------------------------------------|
A|----------------------------------------------------------------|
E|----------------------------------------------------------------|

e|-15~--15-14-12-----12-14-15-14-12~--12-------12-------12-----------------|
B|---------------15~---------------------15^17----------12-----------------|
G|------------------------------------------------14^16----14p12-----------|
D|--------------------------------------------------------------14~-14-14--|
A|-------------------------------------------------------------------------|
E|-------------------------------------------------------------------------|
                                      • 
e|---------12---15----17~--14----------14-15-17-17b-20b-22br-22p19---19-19-|
B|------13---13----13---------15----15----------------------------22b------|
G|-9/12--------------------------14----------------------------------------|
D|-------------------------------------------------------------------------|
A|-------------------------------------------------------------------------|
E|-------------------------------------------------------------------------|
        •    •     •

e|-----19-19-----19-19-----19-19-19----17-19-22----17-19p17-----|
B|-22b-------22b-------22b----------20----------20----------20--|
G|--------------------------------------------------------------|
D|--------------------------------------------------------------|
A|--------------------------------------------------------------|
E|--------------------------------------------------------------|

e|-19h22p19-17-19p17--19h22p19-17-19p17--19h22p19-17-19p17----17-19-19~--|
B|---------------------------------------------------------20------------|
G|-----------------------------------------------------------------------|
D|-----------------------------------------------------------------------|
A|-----------------------------------------------------------------------|
E|-----------------------------------------------------------------------|
  
 (muddy part :s)
e|-12~--12------12---------------------------|
B|-----------12----15p12----12---------------|
G|--------14b------------14----14-12-14p12---|
D|----------------------------------------14-|
A|-------------------------------------------|
E|-------------------------------------------|

e|----------------------------12-15-17--19~~--------------|
B|-------------------12-15-17-----------------------------|
G|----------12-14-15--------------------------------------|
D|-12-13-14-----------------------------------------------|
A|-------------------------------------------------x////--|
E|-------------------------------------------------x////--|

RHYHTM UNDERNEATH SOLO

e|-----------------------------|
B|-----------------------------|
G|-----------------------------|
D|-----------------------------| x4
A|-7---------------------------|
E|----0--2--3--4--5--7--0-9-10-|

e|----------------------------------------------|
B|----------------------------------------------|
G|-------x-7-x-7--7---9-7-8-9-9--7-8-9-7-8-9-9--|
D|-5-----x-7-x-7--7---9-7-8-9-9--7-8-9-7-8-9-9--| x4
A|-5-----x-5-x-5--5-----------------------------|
E|-3--------------------------------------------|

e|------------------------------------------------------|
B|------------------------------------------------------|
G|-9-7-8-9-7-8-9-9--7-8-9-7-8-9-9-----------------------|
D|-9-7-8-9-7-8-9-9--7-8-9-7-8-9-9-----------------------|
A|---------------------------------2--2--2--2--2--2--2--|
E|---------------------------------0--0--0--0--0--0--0--|
                                   •  •  •  •  •  •  • 

VERSE (02:58)

CHORUS (03:20)

e|------------------------------------|
B|-5----7-----------------------------|
G|-5----7----9-7-8-9--7-8-9-7-8-9/----|
D|-5----7----9-7-8-9--7-8-9-7-8-9/----| x3
A|-3----5-----------------------------|
E|------------------------------------|


e|------------------------------------|
B|-5------------7-----8p7---7------6--|
G|-5------------7---------7---7----6--|
D|-5------------7---------------7--6--|
A|-3------------5------------------4--|
E|------------------------------------|

e|------------------------------------|
B|-5----7-----------------------------|
G|-5----7----9-7-8-9--7-8-9-7-8-9/----|
D|-5----7----9-7-8-9--7-8-9-7-8-9/----| x3
A|-3----5-----------------------------|
E|------------------------------------|

e|-----------------------------------------|
B|---------5---7---------------------------|
G|---------5---7---9-7-8-9--9-7-8-9-7-8-9--|
D|-5---7---5---7---9-8-8-9--9-7-8-9-7-8-9--|
A|-5---7---3---5---------------------------|
E|-3---5-----------------------------------|
 
 "Back to Zeroooooooooo!"
e|------------------------------------|
B|-5----7-----------------------------|
G|-5----7----9-7-8-9--7-8-9-7-8-9/----|
D|-5----7----9-7-8-9--7-8-9-7-8-9/----| x2
A|-3----5-----------------------------|
E|------------------------------------|

e|--------------------|
B|--------------------|
G|-9-7-8-9---7-8-9/---|
D|-9-7-8-9---7-8-9/---|
A|--------------------|
E|--------------------|

END
-----------------------------------------------------------
Back to Zero from the "Fire Fire" album by E•Z•O

Solo is not 100% correct, but I hope you enjoy!

Band website/wiki = http://en.wikipedia.org/wiki/Ezo_%28band%29
Добавлено: 08.03.2012
Другие материалы по этой песне:
  • Аккорды и текст

Страница создана 08.03.2012
http://primanota.ru/ezo/back-to-zero-chords.htm
Привет, Гость.
Предлагаем пройти революционный курс по гитаре.
Подарок от PrimaNota.Ru, забирай!