PrimaNota.ru - самый крупный в мире бесплатный архив песенных текстов, аккордов, табулатур и нот


Ezkisofrenia - Ataka Y Destruye - таба, видео

Регистрация Запомнить меня
Войти через:  Facebook Google Twitter Vk Yandex Mail.ru

Ezkisofrenia - Ataka Y Destruye - таба, видео

Печатать
Просмотров: 75
---3----5----1----3------------------------------|
---3----5----1----3------------------------------|
---5----5----1----3------------------------------|
---5-x5-7-x5-3-x5-5-x5---------------------------|
---3----7----3----5------------------------------|
--------5----1----3------------------------------|

Solo:
-------------------------------------------------|
-------------------------------------8-7-5-------|
-----5-7777777-5-7777777-57777777---------8-7-5--|
-------------------------------------------------|
-------------------------------------------------|
-------------------------------------------------|

-------------------------------------------------|
-------------------------------------------------|
---8-7-5-7-5-7-3---------------------------------|
-------------------------------------------------|
-------------------------------------------------|
-------------------------------------------------|

http://www.youtube.com/watch?v=CYjdzjT86PI
Добавлено: 16.06.2013
Другие материалы по этой песне:
  • Аккорды и текст

Страница создана 16.06.2013
http://primanota.ru/ezkisofrenia/ataka-y-destruye-chords.htm
Привет, Гость.
Предлагаем пройти революционный курс по гитаре.
Подарок от PrimaNota.Ru, забирай!