PrimaNota.ru - самый крупный в мире бесплатный архив песенных текстов, аккордов, табулатур и нот


Ezio - Ten Thousand Bars Live - аккорды и текст, видео

Регистрация Запомнить меня
Войти через:  Facebook Google Twitter Vk Yandex Mail.ru

Ezio - Ten Thousand Bars Live - аккорды и текст, видео

Печатать
Просмотров: 109
Ten Thousand Bars Live
Ezio
Ten thousand bars from the live album.

Words and Music by Ezio Lunedei
Transcribed by Peter Whybrow   pwhybrow_2000@yahoo.com




This is mostly a pick of the  root note of each chord string strum the rest.

Intro is like this:


-----------------------------------------|
------1--------1---------1---------1-----|
-----------------------------------------|
------2--------2---------2---------2-----|
-3----3----3---3----3----3----3----3-----|
-----------------------------------------|



C                                  G
So why is it always me that has to listen


          C                           G
You're always on transmit,  You don't recieve


            C
And if your lips stopped moving for second

                         G
Yeah well maybe I'd kiss em


             C                                G
And if they don't stop moving soon I'm gonna leave

                                 Bm
Cos I've done a million miles in cars.

    Am
To play ten thousand bars

                      Bm
And there was no-one there

                           Am
That didn't know much more than me

                   Bm
Sometimes you get sick on your own

                   Am
And sometimes you get bad news from home

               C
But you give yourself, to those who wanna see.   D - C - Bm  D with root note picked on 
the A  and D strings like this tab


      D         C            Bm            D

------2-----------------------2------------2-----------|
------3---------1-------------3------------3-----------|
------2---------2-------------4------------2-----------|
--0---------------------------4------0-----------------|
------------3---3-------2-----2------------------------|
-------------------------------------------------------|



         C                               G
And you think, that you've a right to an opinion


      C                          G
When all you do say the same old thing


                              C                            G
Like you should be more like James Blunt or maybe Hose Feliciano


                 C                              G
You can do that whole...middle class and blind thing

                        C                  G
And you think I'm gonna sit there in your office

              C                       G
Well it's my opinion, you're making a mistake

                C                          G
You think that you, can understand, in an instant

                    C                    G
What it takes some people a lifetime to create

   C                  G
So roll up, roll up, come on and take a look

   C                                     G
He sings like Steven Hawking, and he'll play like captain Hook.

          C
He use to smoke too much, and he'll swear too much

           G
And if you piss him off he'll complain

                            C
He looks a little bit like Gerarrd Depardieu before he went on the atkins diet

             G
I think that he must be insane

                                 Bm
Cos I've done a million miles in cars.

    Am
To play ten thousand bars

                      Bm
And there was no-one there

                                Am   (add a hammer onto the b string of the Am on the 
second strum)
That didn't know much more than me

                   Bm
Sometimes you get sick on your own

                      Am
And sometimes you get bad news from home

               C
But there's knowone I know, that's luckier than me.   D - C - Bm  D with A string picked 
- end on  G,  he adds a Dsus4 just befor the G


      D         C            Bm            D     Dsus4            G

------2-----------------------2------------2-----2H3------2H3-----3--|
------3---------1-------------3------------3-----3--------3----------|
------2---------2-------------4------------2-----2--------2----------|
--0---------------------------4------0-------------------------------|
------------3---3-------2-----2----------------------------------2---|
------------------------------------------------------------------3--|
Добавлено: 12.06.2013
Другие материалы по этой песне:
  • Аккорды и текст

Страница создана 12.06.2013
http://primanota.ru/ezio/ten-thousand-bars-live-chords.htm
Привет, Гость.
Предлагаем пройти революционный курс по гитаре.
Подарок от PrimaNota.Ru, забирай!