PrimaNota.ru - самый крупный в мире бесплатный архив песенных текстов, аккордов, табулатур и нот


Eyes Set To Kill - Cover Me Up - текст песни, бас-таба, видео

Регистрация Запомнить меня
Войти через:  Facebook Google Twitter Vk Yandex Mail.ru

Eyes Set To Kill - Cover Me Up - текст песни, бас-таба, видео

Печатать
Просмотров: 165
Уроки эстрадного вокала в Санкт-Петербурге
+++++++++++++++++++++++++++++++++
| Eyes Set To Kill- Cover Me Up |
+++++++++++++++++++++++++++++++++

Regards to Anissa ;)

Tuning: EADG

Intro
"Cover me up with black sheets..."
1.
G|------------------------------------------------------2-0----------7-5-4-|
D|----------------------------------------------------------4--------------|
A|-----------------------------------------------3~-3-3-------3~-3-3-------|
E|-------------------------------------------------------------------------|

"Punish my soul..."
2.
G|-----2---0~------2---0~------2---0~-----2---0~--------2-0----------7-5-4-|
D|-2-2---2-----2-2---2-----2-2---2----2-2---2---------------4--------------|
A|-----------------------------------------------3~-3-3-------3~-3-3-------|--x3
E|-------------------------------------------------------------------------|

3.
G|---------2-0---2-0-----------2-0---2-0-----------------------------------4x-|
D|-2-2-2-2-----4-----4-2-2-2-2-----4-----4---------5-4---5-4-----------7-5----|
A|-----------------------------------------3-3-3-3-----3-----3-5-5-5-5--------|
E|----------------------------------------------------------------------------|

Verse
4.
G|---------2-0---2-0-----------2-0---2-0-----------------------------------4x-|
D|-2-2-2-2-----4-----4-2-2-2-2-----4-----4---------5-4---5-4-----------7-5----|
A|-----------------------------------------3-3-3-3-----3-----3-5-5-5-5--------|--x2
E|----------------------------------------------------------------------------|

Pre-Chorus
5.
G|-------------------|
D|-------------5-4-0-|
A|-3~----5~----------|
E|-------------------|

Chorus
6.
G|-------------------------------------------------|
D|-2~--------4~----5~------------------------5-4-0-|
A|-----------------------3~--------5~--------------|--x4
E|-------------------------------------------------|

Outro
7.
G|---------2-0---2-0-------------------4x-|
D|-22-22-2-----4-----4-------------7-5----|
A|---------------------33-33-55-55--------|--x4
E|----------------------------------------|

7.
G|-------------------------------------------------2-0---2-0-----------2-0-4x-|
D|---------5-4---5-4-----------5-4---5-4---2-2-2-2-----4-----4-2-2-2-2--------|
A|-3-3-3-3-----3-----3-5-5-5-5-----5-----5------------------------------------|
E|----------------------------------------------------------------------------|

Verse
8.
G|-------------------------------------------------2-0---2-0-----------2-0-4x-|
D|---------5-4---5-4-----------5-4---5-4---2-2-2-2-----4-----4-2-2-2-2--------|
A|-3-3-3-3-----3-----3-5-5-5-5-----5-----5------------------------------------|--x2
E|----------------------------------------------------------------------------|

Pre-Chorus
9.
G|-------------------|
D|-------------5-4-0-|
A|-3~----5~----------|
E|-------------------|

REST

Chorus
10.
G|-------------------------------------------------|
D|-2~--------4~----5~------------------------5-4-0-|
A|-----------------------3~--------5~--------------| For alot of times
E|-------------------------------------------------|

11.
G|-------2~----0~----------------------------------------------|
D|-------------------4-5-0-------------------------5-4---5-4---|
A|-------------------------3-3-3-3-3-3-3-3-5-5-5-5-----5-----5-|--x4
E|-0~----------------------------------------------------------|

Outro
12.
G|-------2~----0~----------------------------------------------|
D|-------------------4-5-0-------------------------5-4---5-4---|
A|-------------------------3-3-3-3-3-3-3-3-5-5-5-5-----5-----5-|
E|-0~----------------------------------------------------------|

13.
G|-------2~----0~----------------------------------------------|
D|-------------------4-5-0-------------------------5-4---5-4---|
A|-------------------------3-3-3-3-3-3-3-3-5x--5x------5-----5-|
E|-0~----------------------------------------------------------|

14
G|--------------------------------------------------|
D|--------------------------------------------------|
A|--------------------------------------------------|
E|-0~-----------------------------------------------|

+++++++++++++++++++++++++++++++++
| RaiLeff                       |
| Underground__Dora@Hotmail.Com |
+++++++++++++++++++++++++++++++++
Добавлено: 20.06.2012
Другие материалы по этой песне:

Страница создана 13.06.2012
http://primanota.ru/eyes-set-to-kill/cover-me-up-chords.htm
Привет, Гость.
Предлагаем пройти революционный курс по гитаре.
Подарок от PrimaNota.Ru, забирай!