PrimaNota.ru - самый крупный в мире бесплатный архив песенных текстов, аккордов, табулатур и нот


Eyes Of Noctum - Thy Fire Within - таба, видео

Регистрация Запомнить меня
Войти через:  Facebook Google Twitter Vk Yandex Mail.ru

Eyes Of Noctum - Thy Fire Within - таба, видео

Печатать
Просмотров: 114
Уроки эстрадного вокала в Санкт-Петербурге
Eyes of Noctum
Thy Fire Within
d-a-d-g-b-e

If the band "eyes of noctum" really exists and is not an unsigned band, please 
provide us with a link to the official website of this band in your tab below and 
click on Submit Your Tab button again

http://www.eyesofnoctumofficial.com/


*=palm mute


tabbed by andherembrace


---------------------------------------------------------------|
---------------------------------------------------------------|
---------------------------------------------------------------|
---------------------------------------------------------------|
-8----------7----------0------------8----------7---------0-----|
-8----------7----------0------------8----------7---------0-----|


---------------------------------------------------------------------|
---------------------------------------------------------------------|
---------------------------------------------------------------------|
---------------------------------------------------------------------|
-*--*--*-*--*--*-*-*-*--7--------8---10---0--*--*--*-*--*-*--*--*--*-|
-0--0--0-0--0--0-0-0-0--7--------8---10---0--0--0--0-0--0-0--0--0--0-|


---------------------------------------------------------------------|
---------------------------------------------------------------------|
---------------------------------------------------------------------|
---------------------------------------------------------------------|
-8--------7--------3-----0--*--*--*-*--*--*-*--*--*--8------10-------|
-8--------7--------3-----0--0--0--0-0--0--0-0--0--0--8------10-------|


0:29
-----------------------------------------------------------|
-----------------------------------------------------------|
-----------------------------------------------------------|
-7------7------7----7------7------7----7------7------7-----|
-5-****-5-****-5-**-5-****-5-****-5-**-5-****-5-****-5-**--|
---0000---0000---00---0000---0000---00---0000---0000---00--|

-----------------------------------------------------------|
-----------------------------------------------------------|
-----------------------------------------------------------|
-7------7------7----7------7------7----7------7------7-----|
-5-****-5-****-5-**-5-****-5-****-5-**-5-****-5-****-5-**--|
---0000---0000---00---0000---0000---00---0000---0000---00--|

-------------------------------|
-------------------------------|
-------------------------------|
-7------7------7---------------|
-5-****-5-****-5-**-*-6-*-5----|
---0000---0000---00-5-6-5-5----|


-----------------------------------------------------------|
-----------------------------------------------------------|
-----------------------------------------------------------|
-7------7------7----7------7------7----7------7------7-----|
-5-****-5-****-5-**-5-****-5-****-5-**-5-****-5-****-5-**--|
---0000---0000---00---0000---0000---00---0000---0000---00--|

-----------------------------------------------------------|
-----------------------------------------------------------|
-----------------------------------------------------------|
-7------7------7----7------7------7----7------7------7-----|
-5-****-5-****-5-**-5-****-5-****-5-**-5-****-5-****-5-**--|
---0000---0000---00---0000---0000---00---0000---0000---00--|

-------------------------------|
-------------------------------|
-------------------------------|
-7------7------7---------------|
-5-****-5-****-5-**-*-6-*-5----|
---0000---0000---00-5-6-5-5----|


0:52
---------------------------------------------------------------|
---------------------------------------------------------------|
---------------------------------------------------------------|
-----------------^------------------------------^--------------|
-1-4-****-7-5-4-5-8-****-4-3-1--1-4-****-7-5-4-5-8-****-4-3-1--|
-1/4-4444-7-5-4-----0000-4-3-1--1/4-4444-7-5-4-----0000-4-3-1--|

---------------------------------------------------------------|
---------------------------------------------------------------|
---------------------------------------------------------------|
-----------------^------------------------------^--------------|
-1-4-****-7-5-4-5-8-****-4-3-1--1-4-****-7-5-4-5-8-****-4-3-1--|
-1/4-4444-7-5-4-----0000-4-3-1--1/4-4444-7-5-4-----0000-4-3-1--|

-----------------------------------------------------------------|
-----------------------------------------------------------------|
-----------------------------------------------------------------|
-----------------------------------------------------------------|
-1-4-****-7-5-4-************************************************-|
-1/4-4444-7-5-4-000000000000000000000000000000008888888888888888-|

-------------------------------------------------------------------|
-------------------------------------------------------------------|
-------------------------------------------------------------------|
-------------------------------------------------------------------|
****************************************************************---|
5555555555555555000000000000000000000000000000008888888888888888---|

--------------------------------------------------------|
--------5--5---------5--5---------5--5--------5---------|
--------6--6---------6--6---------6--6--------6---------|
-******-4--4--******-4--4--******-4--4-******-4---------|
-444444-4--4--444444-4--4--444444-4--4-444444-4---------|
-444444-------444444-------444444------444444-----------|


1:24
--------------------------------------------------------------|
--------------------------------------------------------------|
--------------------------------------------------------------|
-------------------------------------------------^------------|
9****10****12**-9****10****12**10****12****13**-5-8-****-4-3-1|
-0000--0000--00--0000--0000--00--0000--0000--00-----0000-4-3-1|

---------------------------------------------------------------|
---------------------------------------------------------------|
---------------------------------------------------------------|
---------------------------------------------------------------|
9****10****12**-9****10****12**10****12****13**-1-4-****-7-5-4-|
-0000--0000--00--0000--0000--00--0000--0000--00-1/4-4444-7-5-4-|

--------------------------------------------------------------|
--------------------------------------------------------------|
--------------------------------------------------------------|
-------------------------------------------------^------------|
9****10****12**-9****10****12**10****12****13**-5-8-****-4-3-1|
-0000--0000--00--0000--0000--00--0000--0000--00-----0000-4-3-1|

---------------------------------------------------------------|
---------------------------------------------------------------|
---------------------------------------------------------------|
---------------------------------------------------------------|
9****10****12**-9****10****12**10****12****13**-1-4-****-7-5-4-|
-0000--0000--00--0000--0000--00--0000--0000--00-1/4-4444-7-5-4-|


-----------------|
-----------------|
-----------------|
--^--------------|
-5-8-****-4-3-1--|
-----0000-4-3-1--|

1:49
---------------------------------------------------|
---------------------------------------------------|
---------------------------------------------------|
---------------------------------------------------|
--************************************************-|
--000000000000000000000000000000008888888888888888-|

-------------------------------------------------------------------|
-------------------------------------------------------------------|
-------------------------------------------------------------------|
-------------------------------------------------------------------|
****************************************************************---|
5555555555555555000000000000000000000000000000008888888888888888---|

-------------------------------------------------------------------|
-------------------------------------------------------------------|
-------------------------------------------------------------------|
-------------------------------------------------------------------|
****************************************************************---|
5555555555555555000000000000000000000000000000008888888888888888---|


--------------------------------------------------------|
--------5--5---------5--5---------5--5--------5---------|
--------6--6---------6--6---------6--6--------6---------|
-******-4--4--******-4--4--******-4--4-******-4---------|
-444444-4--4--444444-4--4--444444-4--4-444444-4-----///-|
-444444-------444444-------444444------444444--------\--|


2:13
-----------------------------------------------------------------|
-----------------------------------------------------------------|
-----------------------------------------------------------------|
--^--------------------------------------------------------------|
-5-8-****-4-3-1-****************-1-4-****-7-5-4-****************-|
-----0000-4-3-1-1111111111111111-1/4-4444-7-5-4-4444444444444444-|

-----------------------------------------------------------------|
-----------------------------------------------------------------|
-----------------------------------------------------------------|
--^--------------------------------------------------------------|
-5-8-****-4-3-1-****************-1-4-****-7-5-4-****************-|
-----0000-4-3-1-1111111111111111-1/4-4444-7-5-4-4444444444444444-|

-----------------------------------------------------------------|
-----------------------------------------------------------------|
-----------------------------------------------------------------|
--^--------------------------------------------------------------|
-5-8-****-4-3-1-****************-1-4-****-7-5-4-****************-|
-----0000-4-3-1-1111111111111111-1/4-4444-7-5-4-4444444444444444-|

------------------------------------------------------------------|
------------------------------------------------------------------|
------------------------------------------------------------------|
--^---------------------------------------------------------------|
-5-8-****-4-3-1-****************-1-4-****-7-5-4-****************-0|
-----0000-4-3-1-1111111111111111-1/4-4444-7-5-4-4444444444444444-0|




3:10
---------------------------------------------------------------|
---------------------------------------------------------------|
---------------------------------------------------------------|
-----------*-*-------------------------*-*---------------------|
-0---------1-1------------0------------1-1----------\----------|
-0---------1-1------------0------------1-1----------\----------|


3:24
-------------------------------------------------------|
-------------------------------------------------------|
-------------------------------------------------------|
---------7---------7-----8----------7---------7-----8--|
-*-*-*-*-5-*-*-*-*-5-*-*-6--*-*-*-*-5-*-*-*-*-5-*-*-6--|
-0-0-0-0---0-0-0-0---0-0----0-0-0-0---0-0-0-0---0-0----|

-------------------------------------------------------|
-------------------------------------------------------|
----------------------------------------------------5--|
---------7---------7-----8----------7---------7---7----|
-*-*-*-*-5-*-*-*-*-5-*-*-6--*-*-*-*-5-*-*-*-*-5-5------|
-0-0-0-0---0-0-0-0---0-0----0-0-0-0---0-0-0-0----------|

-------------------------------------------------------|
-------------------------------------------------------|
-------------------------------------------------------|
---------7---------7-----8----------7---------7-----8--|
-*-*-*-*-5-*-*-*-*-5-*-*-6--*-*-*-*-5-*-*-*-*-5-*-*-6--|
-0-0-0-0---0-0-0-0---0-0----0-0-0-0---0-0-0-0---0-0----|

-------------------------------------------------------|
-------------------------------------------------------|
----------------------------------------------------5--|
---------7---------7-----8----------7---------7---7----|
-*-*-*-*-5-*-*-*-*-5-*-*-6--*-*-*-*-5-*-*-*-*-5-5------|
-0-0-0-0---0-0-0-0---0-0----0-0-0-0---0-0-0-0----------|



--------------------------------------------------------------------|
--------------------------------------------------------------------|
--------------------------------------------------------------------|
-----------*-*--------*-*----------------*-*-----*-*--------*-*-----|
-0---------1-1--------1-1---0------------1-1-----1-1--------1-1---0-|
-0---------1-1--------1-1---0------------1-1-----1-1--------1-1---0-|

4:08
--------------------------------------------------------------------------|
--------------------------------------------------------------------------|
--------------------------------------------------------------------------|
--------------------------------------------------------------------------|
8--7--3--0-*****-*-*--**-*--*-*-*-*-8--10--7-8-10-0-*****-*-*-**-*-*-*-*-*|
8--7--3--0-00000-0-0--00-0--0-0-0-0-8--10--7-8-10-0-00000-0-0-00-0-0-0-0-0|

--------------------------------------------------------------------------|
--------------------------------------------------------------------------|
--------------------------------------------------------------------------|
--------------------------------------------------------------------------|
8--7--3--0-*****-*-*--**-*--*-*-*-*-8--10--7-8-10-0-*****-*-*-**-*-*-*-*-*|
8--7--3--0-00000-0-0--00-0--0-0-0-0-8--10--7-8-10-0-00000-0-0-00-0-0-0-0-0|

--------------------------------------------------------------------------|
--------------------------------------------------------------------------|
--------------------------------------------------------------------------|
--------------------------------------------------------------------------|
8--7--3--0-*****-*-*--**-*--*-*-*-*-8--10--7-8-10-0-*****-*-*-**-*-*-*-*-*|
8--7--3--0-00000-0-0--00-0--0-0-0-0-8--10--7-8-10-0-00000-0-0-00-0-0-0-0-0|

--------------------------------------------------|
--------------------------------------------------|
--------------------------------------------------|
--------------------------------------------------|
8--7--3--0-*****-*-*--**-*--*-*-*-*-8--10--7-8-10-|
8--7--3--0-00000-0-0--00-0--0-0-0-0-8--10--7-8-10-|


4:54
---------------------------------------------------|
---------------------------------------------------|
---------------------------------------------------|
---------------------------------------------------|
-0--*-*-*-*-*-*-*-*-3-4-5-0--*-*-*-*-*-*-*-*-3-4-5-|
-0--0-0-0-0-0-0-0-0-3-4-5-0--0-0-0-0-0-0-0-0-3-4-5-|


---------------------------------------------------|
---------------------------------------------------|
---------------------------------------------------|
---------------------------------------------------|
-0--*-*-*-*-*-*-*-*-3-4-5-0--*-*-*-*-*-*-*-*-3-4-5-|
-0--0-0-0-0-0-0-0-0-3-4-5-0--0-0-0-0-0-0-0-0-3-4-5-|


Добавлено: 29.09.2013
Другие материалы по этой песне:
  • Аккорды и текст

Страница создана 29.09.2013
http://primanota.ru/eyes-of-noctum/thy-fire-within-chords.htm
Привет, Гость.
Предлагаем пройти революционный курс по гитаре.
Подарок от PrimaNota.Ru, забирай!