PrimaNota.ru - самый крупный в мире бесплатный архив песенных текстов, аккордов, табулатур и нот


Eyes Of Noctum - The Renaissance Of Prosperity - таба, видео

Регистрация Запомнить меня
Войти через:  Facebook Google Twitter Vk Yandex Mail.ru

Eyes Of Noctum - The Renaissance Of Prosperity - таба, видео

Печатать
Просмотров: 163
Уроки эстрадного вокала в Санкт-Петербурге
EYES OF NOCTUM
THE RENAISSANCE OF PROSPERITY
DADGBE

*=PALM MUTE


TABBED BY andherembrace

0:09
---------------------------------------------------------------|
---------------------------------------------------------------|
---------------------------------------------------------------|
---------------------------------------------------------------|
-********-*-*-*-*-*---*-*-*-*-*--********-*-*-*-*-*---*-*-*-*-*|
-33333333-0-0-0-0-0---0-0-0-0-0--33333333-0-0-0-0-0---0-0-0-0-0|

---------------------------------------------------------------|
---------------------------------------------------------------|
---------------------------------------------------------------|
---------------------------------------------------------------|
-********-*-*-*-*-*---*-*-*-*-*--********-*-*-*-*-*---*-*-*-*-*|
-55555555-0-0-0-0-0---0-0-0-0-0--77777777-0-0-0-0-0---0-0-0-0-0|

---------------------------------------------------------------|
---------------------------------------------------------------|
---------------------------------------------------------------|
---------------------------------------------------------------|
-********-*-*-*-*-*---*-*-*-*-*--********-*-*-*-*-*---*-*-*-*-*|
-88888888-0-0-0-0-0---0-0-0-0-0--33333333-0-0-0-0-0---0-0-0-0-0|

---------------------------------------------------------------|
---------------------------------------------------------------|
---------------------------------------------------------------|
---------------------------------------------------------------|
-********-*-*-*-*-*---*-*-*-*-*--********-*-*-*-*-*---*-*-*-*-*|
-55555555-0-0-0-0-0---0-0-0-0-0--77777777-0-0-0-0-0---0-0-0-0-0|

---------------------------------------------------------------|
---------------------------------------------------------------|
---------------------------------------------------------------|
---------------------------------------------------------------|
-********-*-*-*-*-*---*-*-*-*-*--********-*-*-*-*-*---*-*-*-*-*|
-88888888-0-0-0-0-0---0-0-0-0-0--33333333-0-0-0-0-0---0-0-0-0-0|

---------------------------------------------------------------|
---------------------------------------------------------------|
---------------------------------------------------------------|
---------------------------------------------------------------|
-********-*-*-*-*-*---*-*-*-*-*--********-*-*-*-*-*---*-*-*-*-*|
-55555555-0-0-0-0-0---0-0-0-0-0--77777777-0-0-0-0-0---0-0-0-0-0|

----------|
----------|
----------|
----------|
-*-*-*-*--|
-8-8-8-8--|


0:46
------------------------------------------------|
------------------------------------------------|
------------------------------------------------|
------------------------------------------------|
-7---7--*-*-0-----*-*-8------8-*-*-*-5-----*-7--|
-7---7--3-2-0-----5-7-8------8-7-5-7-5-----5-7--|

------------------------------------------------------|
------------------------------------------------------|
------------------------------------------------------|
------------------------------------------------------|
-0---7---7--*-*-0-----*-*-8------8-*-*-*-5-----*-7----|
-0---7---7--3-2-0-----5-7-8------8-7-5-7-5-----5-7----|


---------------------------------------------------------------|
---------------------------------------------------------------|
---------------------------------------------------------------|
---------------------------------------------------------------|
*-*-*-*-*---*-*-*-*-*--********-*-*-*-*-*---*-*-*-*-*--********|
0-0-0-0-0---0-0-0-0-0--33333333-0-0-0-0-0---0-0-0-0-0--55555555|

------------------------------------------------------------------|
------------------------------------------------------------------|
------------------------------------------------------------------|
------------------------------------------------------------------|
-*-*-*-*-*---*-*-*-*-*--********-*-*-*-*-*---*-*-*-*-*--*********-|
-0-0-0-0-0---0-0-0-0-0--77777777--0-0-0-0-0---0-0-0-0-0-888888888-|

---------------------------------------------------------------|
---------------------------------------------------------------|
---------------------------------------------------------------|
---------------------------------------------------------------|
*-*-*-*-*---*-*-*-*-*--********-*-*-*-*-*---*-*-*-*-*--********|
0-0-0-0-0---0-0-0-0-0--33333333-0-0-0-0-0---0-0-0-0-0--55555555|

------------------------------------------------------------------|
------------------------------------------------------------------|
------------------------------------------------------------------|
------------------------------------------------------------------|
-*-*-*-*-*---*-*-*-*-*--********-*-*-*-*-*---*-*-*-*-*--*********-|
-0-0-0-0-0---0-0-0-0-0--77777777--0-0-0-0-0---0-0-0-0-0-888888888-|


---------------------------------------------------------------|
---------------------------------------------------------------|
---------------------------------------------------------------|
---------------------------------------------------------------|
*-*-*-*-*---*-*-*-*-*--********-*-*-*-*-*---*-*-*-*-*--********|
0-0-0-0-0---0-0-0-0-0--33333333-0-0-0-0-0---0-0-0-0-0--55555555|

------------------------------------------------------------------|
------------------------------------------------------------------|
------------------------------------------------------------------|
------------------------------------------------------------------|
-*-*-*-*-*---*-*-*-*-*--********-*-*-*-*-*---*-*-*-*-*---*-*-*-*--|
-0-0-0-0-0---0-0-0-0-0--77777777--0-0-0-0-0---0-0-0-0-0--8-8-8-8--|

------------------------------------------------|
------------------------------------------------|
------------------------------------------------|
------------------------------------------------|
-7---7--*-*-0-----*-*-8------8-*-*-*-5-----*-7--|
-7---7--3-2-0-----5-7-8------8-7-5-7-5-----5-7--|

------------------------------------------------------|
------------------------------------------------------|
------------------------------------------------------|
------------------------------------------------------|
-0---7---7--*-*-0-----*-*-8------8-*-*-*-5-----*-7----|
-0---7---7--3-2-0-----5-7-8------8-7-5-7-5-----5-7----|


2:16
-----------------------------------------------------------------|
-----------------------------------------------------------------|
-----------------------------------------------------------------|
-***-***-***-***-***-***-***-***--***-***-***-***-***-***-***-***|
-555-555-555-555-555-666-333-666--555-555-555-555-555-666-333-666|
-----------------------------------------------------------------|

-----------------------------------------------------------------------|
-----------------------------------------------------------------------|
-----------------------------------------------------------------------|
-***-***-***-***-***-***-***-***--***-***-***-***-***-***--------------|
-555-555-555-555-555-666-333-666--555-555-555-555-555-555--------------|
-----------------------------------------------------------5-8-8-3-7-7-|

-----------------------------------------------------------------|
-----------------------------------------------------------------|
-----------------------------------------------------------------|
-***-***-***-***-***-***-***-***--***-***-***-***-***-***-***-***|
-555-555-555-555-555-666-333-666--555-555-555-555-555-666-333-666|
-----------------------------------------------------------------|

-----------------------------------------------------------------------|
-----------------------------------------------------------------------|
-----------------------------------------------------------------------|
-***-***-***-***-***-***-***-***--***-***-***-***-***-***--------------|
-555-555-555-555-555-666-333-666--555-555-555-555-555-555--------------|
-----------------------------------------------------------5-8-8-3-7-7-|


---------------------------------------------------------------|
---------------------------------------------------------------|
---------------------------------------------------------------|
---------------------------------------------------------------|
*-*-*-*-*---*-*-*-*-*--********-*-*-*-*-*---*-*-*-*-*--********|
0-0-0-0-0---0-0-0-0-0--33333333-0-0-0-0-0---0-0-0-0-0--55555555|

------------------------------------------------------------------|
------------------------------------------------------------------|
------------------------------------------------------------------|
------------------------------------------------------------------|
-*-*-*-*-*---*-*-*-*-*--********-*-*-*-*-*---*-*-*-*-*--*********-|
-0-0-0-0-0---0-0-0-0-0--77777777--0-0-0-0-0---0-0-0-0-0-888888888-|

---------------------------------------------------------------|
---------------------------------------------------------------|
---------------------------------------------------------------|
---------------------------------------------------------------|
*-*-*-*-*---*-*-*-*-*--********-*-*-*-*-*---*-*-*-*-*--********|
0-0-0-0-0---0-0-0-0-0--33333333-0-0-0-0-0---0-0-0-0-0--55555555|

------------------------------------------------------------------|
------------------------------------------------------------------|
------------------------------------------------------------------|
------------------------------------------------------------------|
-*-*-*-*-*---*-*-*-*-*--********-*-*-*-*-*---*-*-*-*-*---*-*-*-*--|
-0-0-0-0-0---0-0-0-0-0--77777777--0-0-0-0-0---0-0-0-0-0--8-8-8-8--|


3:02
------------------------------------------------|
------------------------------------------------|
------------------------------------------------|
------------------------------------------------|
-7---7--*-*-0-----*-*-8------8-*-*-*-5-----*-7--|
-7---7--3-2-0-----5-7-8------8-7-5-7-5-----5-7--|

------------------------------------------------------|
------------------------------------------------------|
------------------------------------------------------|
------------------------------------------------------|
-0---7---7--*-*-0-----*-*-8------8-*-*-*-5-----*-7----|
-0---7---7--3-2-0-----5-7-8------8-7-5-7-5-----5-7----|


3:29
-----------------------------------------------------------------|
-----------------------------------------------------------------|
-----------------------------------------------------------------|
-***-***-***-***-***-***-***-***--***-***-***-***-***-***-***-***|
-555-555-555-555-555-666-333-666--555-555-555-555-555-666-333-666|
-----------------------------------------------------------------|

-----------------------------------------------------------------------|
-----------------------------------------------------------------------|
-----------------------------------------------------------------------|
-***-***-***-***-***-***-***-***--***-***-***-***-***-***--------------|
-555-555-555-555-555-666-333-666--555-555-555-555-555-555--------------|
----------------------------------------------------------5-8-8-3-7-7--|

-----------------------------------------------------------------|
-----------------------------------------------------------------|
-----------------------------------------------------------------|
-***-***-***-***-***-***-***-***--***-***-***-***-***-***-***-***|
-555-555-555-555-555-666-333-666--555-555-555-555-555-666-333-666|
-----------------------------------------------------------------|

-----------------------------------------------------------------------|
-----------------------------------------------------------------------|
-----------------------------------------------------------------------|
-***-***-***-***-***-***-***-***--***-***-***-***-***-***--------------|
-555-555-555-555-555-666-333-666--555-555-555-555-555-555--------------|
-----------------------------------------------------------5-8-8-3-7-7-|


3:51
-----------------------------------------------------------------------|
-----------------------------------------------------------------------|
-----------------------------------------------------------------------|
-8--8--8--8--8--8--8--8--8--8--8--8--8--8--8--8-12-12-12-12-12-12-12-12|
10-10-10-10-10-10-10-10-10-10-10-10-10-10-10-10-10-10-10-10-10-10-10-10|
-----------------------------------------------------------------------|

--------------------------------------------------------|
--------------------------------------------------------|
--------------------------------------------------------|
-8--8--8--8--8--8--8--8-7-7-7-7-7-7-7-7-7-7-7-7-7-7-7-7-|
10-10-10-10-10-10-10-10-8-8-8-8-8-8-8-8-8-8-8-8-8-8-8-8-|
--------------------------------------------------------|

-------------------------------------------|
-------------------------------------------|
-------------------------------------------|
10-10-10-10-10-10-10-10-7-7-7-7-7-7-7-7----|
-8--8--8--8--8--8--8--8-8-8-8-8-8-8-8-8----|
-------------------------------------------|

------------------------------------------------------------------|
------------------------------------------------------------------|
------------------------------------------------------------------|
-8--8--8--8--8--8--8--8--8--8--8--8--8--8--8--8-13-13-13-13-13-13-|
10-10-10-10-10-10-10-10-10-10-10-10-10-10-10-10-10-10-10-10-10-10-|
------------------------------------------------------------------|

---------------------------------------------------------------|
---------------------------------------------------------------|
---------------------------------------------------------------|
-12-12-12-12-12-12-10-10-10-10-7-7-7-7-7-7-7-7-7-7-7-7-7-7-7-7-|
-10-10-10-10-10-10-10-10-10-10-8-8-8-8-8-8-8-8-8-8-8-8-8-8-8-8-|
---------------------------------------------------------------|

-------------------------------------------|
-------------------------------------------|
-------------------------------------------|
10-10-10-10-10-10-10-10-7-7-7-7-7-7-7-7----|
-8--8--8--8--8--8--8--8-8-8-8-8-8-8-8-8----|
-------------------------------------------|


-----------------------------------------------------------------------|
-----------------------------------------------------------------------|
-----------------------------------------------------------------------|
-8--8--8--8--8--8--8--8--8--8--8--8--8--8--8--8-12-12-12-12-12-12-12-12|
10-10-10-10-10-10-10-10-10-10-10-10-10-10-10-10-10-10-10-10-10-10-10-10|
-----------------------------------------------------------------------|

--------------------------------------------------------|
--------------------------------------------------------|
--------------------------------------------------------|
-8--8--8--8--8--8--8--8-7-7-7-7-7-7-7-7-7-7-7-7-7-7-7-7-|
10-10-10-10-10-10-10-10-8-8-8-8-8-8-8-8-8-8-8-8-8-8-8-8-|
--------------------------------------------------------|

-------------------------------------------|
-------------------------------------------|
-------------------------------------------|
10-10-10-10-10-10-10-10-7-7-7-7-7-7-7-7----|
-8--8--8--8--8--8--8--8-8-8-8-8-8-8-8-8----|
-------------------------------------------|

------------------------------------------------------------------|
------------------------------------------------------------------|
------------------------------------------------------------------|
-8--8--8--8--8--8--8--8--8--8--8--8--8--8--8--8-13-13-13-13-13-13-|
10-10-10-10-10-10-10-10-10-10-10-10-10-10-10-10-10-10-10-10-10-10-|
------------------------------------------------------------------|

---------------------------------------------------------------|
---------------------------------------------------------------|
---------------------------------------------------------------|
-12-12-12-12-12-12-10-10-10-10-7-7-7-7-7-7-7-7-7-7-7-7-7-7-7-7-|
-10-10-10-10-10-10-10-10-10-10-8-8-8-8-8-8-8-8-8-8-8-8-8-8-8-8-|
---------------------------------------------------------------|

-------------------------------------------|
-------------------------------------------|
-------------------------------------------|
10-10-10-10-10-10-10-10-7-7-7-7-7-7-7-7----|
-8--8--8--8--8--8--8--8-8-8-8-8-8-8-8-8----|
-------------------------------------------|

solo
----------------------------------15----------14------------|
------------------11----13----15------15--13------13--------|
-12-11-12---14----------------------------------------------|
------------------------------------------------------------|
------------------------------------------------------------|
------------------------------------------------------------|

-------------------------------)----------------------------|
------------------11----13----14--14~~~---------------------|
-12-11-12---14---------------------------15----14-----------|
------------------------------------------------------------|
------------------------------------------------------------|
------------------------------------------------------------|



-10----------10----------11----------10-------------|
----------------------------------------------------|
----12-11-12----12-11-12----12-11-12----12-11-12----|
----------------------------------------------------|
----------------------------------------------------|
----------------------------------------------------|

----------------------------------------------------|
-10----------10----------11----------11-------------|
----12-11-12----12-11-12----12-11-12----12-11-12----|
----------------------------------------------------|
----------------------------------------------------|
----------------------------------------------------|


-10----------10----------11----------10-------------|
----------------------------------------------------|
----12-11-12----12-11-12----12-11-12----12-11-12----|
----------------------------------------------------|
----------------------------------------------------|
----------------------------------------------------|

----------------------------------------------------|
-10----------10----------11----------11-------------|
----12-11-12----12-11-12----12-11-12----12-11-12----|
----------------------------------------------------|
----------------------------------------------------|
----------------------------------------------------|


-10----------10----------11----------10-------------|
----------------------------------------------------|
----12-11-12----12-11-12----12-11-12----12-11-12----|
----------------------------------------------------|
----------------------------------------------------|
----------------------------------------------------|

----------------------------------------------------|
-10----------10----------11----------11-------------|
----12-11-12----12-11-12----12-11-12----12-11-12----|
----------------------------------------------------|
----------------------------------------------------|
----------------------------------------------------|


-10----------10----------11----------10-------------|
----------------------------------------------------|
----12-11-12----12-11-12----12-11-12----12-11-12----|
----------------------------------------------------|
----------------------------------------------------|
----------------------------------------------------|

----------------------------------------------------|
-10----------10----------11----------11-------------|
----12-11-12----12-11-12----12-11-12----12-11-12----|
----------------------------------------------------|
----------------------------------------------------|
----------------------------------------------------|


-10----------10----------11----------10-------------|
----------------------------------------------------|
----12-11-12----12-11-12----12-11-12----12-11-12----|
----------------------------------------------------|
----------------------------------------------------|
----------------------------------------------------|

----------------------------------------------------|
-10----------10----------11----------11-------------|
----12-11-12----12-11-12----12-11-12----12-11-------|
----------------------------------------------------|
----------------------------------------------------|
----------------------------------------------------|

Добавлено: 24.08.2013
Вам также может быть интересно:
Другие материалы по этой песне:
  • Аккорды и текст

Страница создана 24.08.2013
http://primanota.ru/eyes-of-noctum/the-renaissance-of-prosperity-chords.htm
Привет, Гость.
Предлагаем пройти революционный курс по гитаре.
Подарок от PrimaNota.Ru, забирай!