PrimaNota.ru - самый крупный в мире бесплатный архив песенных текстов, аккордов, табулатур и нот


Eyes Of Noctum - Phantasma Nocturna - таба, видео

Регистрация Запомнить меня
Войти через:  Facebook Google Twitter Vk Yandex Mail.ru

Eyes Of Noctum - Phantasma Nocturna - таба, видео

Печатать
Просмотров: 160
EYES OF NOCTUM
PHANTASMA NOCTURNA
DADGBE

*=PALM MUTE

TABBED BY andherembrace

---------------------------------------------------------------|
---------------------------------------------------------------|
---------------------------------------------------------------|
-*-*-*---*-*-*---*-*-*---*-*-*---*-*-*---*-*-*---*-*-*---*-*-*-|
-5-5-5---5-5-5---1-1-1---0-0-0---5-5-5---5-5-5---1-1-1---0-0-0-|
-5-5-5---5-5-5---1-1-1---0-0-0---5-5-5---5-5-5---1-1-1---0-0-0-|


0:15
gt1
---------------------------------------------------------------|
---------------------------------------------------------------|
---------------------------------------------------------------|
---------------------------------------------------------------|
-5----------------1---------0----5----------------1---------0--|
-5----------------1---------0----5----------------1---------0--|
gt2
---------------------------------------------------------------|
---------------------------------------------------------------|
-3--2--3----------2--------------3------5----3---2-------------|
----------5------------3--5--4-------------------------5---4---|
---------------------------------------------------------------|
---------------------------------------------------------------|

gt1
---------------------------------------------------------------|
---------------------------------------------------------------|
---------------------------------------------------------------|
---------------------------------------------------------------|
-5----------------1---------0----5----------------1---------0--|
-5----------------1---------0----5----------------1---------0--|
gt2 higher harmony
---------------------------------------------------------------|
---------------------------------------------------------------|
-7--5--7---------10--7--8--7------7------8---7----5------------|
-----------8-------------------------------------------8---7---|
---------------------------------------------------------------|
---------------------------------------------------------------|


0:44
------------------------------------------------------|
------------------------------------------------------|
---****---------****---------****---------****--------|
-7-7777-7-7-7-7-7777-7-7-7-5-5555-5-5-5-8-8888-8-8-8--|
-5-5555-5-5-5-5-5555-5-5-5-3-3333-3-3-3-6-6666-6-6-6--|
------------------------------------------------------|

------------------------------------------------------|
------------------------------------------------------|
---****---------****---------****---------****--------|
-7-7777-7-7-7-7-7777-7-7-7-5-5555-5-5-5-8-8888-8-8-8--|
-5-5555-5-5-5-5-5555-5-5-5-3-3333-3-3-3-6-6666-6-6-6--|
------------------------------------------------------|

------------------------------------------------------|
------------------------------------------------------|
---****---------****---------****---------****--------|
-7-7777-7-7-7-7-7777-7-7-7-5-5555-5-5-5-8-8888-8-8-8--|
-5-5555-5-5-5-5-5555-5-5-5-3-3333-3-3-3-6-6666-6-6-6--|
------------------------------------------------------|

------------------------------------------------------|
------------------------------------------------------|
---****---------****---------****---------****--------|
-7-7777-7-7-7-7-7777-7-7-7-5-5555-5-5-5-8-8888-8-8-8--|
-5-5555-5-5-5-5-5555-5-5-5-3-3333-3-3-3-6-6666-6-6-6--|
------------------------------------------------------|


1:14
---------------------------------------------------------------|
---------------------------------------------------------------|
---------------------------------------------------------------|
-*-*---***-*---*---------*-----*-*---***-*---*---------*-------|
-0-0-1-000-0-1-0-4-3-*-1-3-1---0-0-1-000-0-1-0-4-3-*-1-3-1-----|
-0-0-1-000-0-1-0-4-3-0-1-3-1---0-0-1-000-0-1-0-4-3-0-1-3-1-----|

-----------------------------------------------------------|
-----------------------------------------------------------|
-----------------------------------------------------------|
-*-*---***-*---*---------*-----*-*---***-*---*---------*---|
-0-0-1-000-0-1-0-4-3-*-1-3-1---0-0-1-000-0-1-0-4-3-*-1-3-1-|
-0-0-1-000-0-1-0-4-3-0-1-3-1---0-0-1-000-0-1-0-4-3-0-1-3-1-|


1:25
------------------------------------------|
------------------------------------------|
----------------------------------5-3-----|
--------------------------------------5---|
-5-----1-----0------5-----1-----0---------|
-5-----1-----0------5-----1-----0---------|

------------------------------------------|
------------------------------------------|
----------------------------------5-3-----|
--------------------------------------5---|
-5-----1-----0------5-----1-----0---------|
-5-----1-----0------5-----1-----0---------|


1:54
------------------------------------------------------|
------------------------------------------------------|
---****---------****---------****---------****--------|
-7-7777-7-7-7-7-7777-7-7-7-5-5555-5-5-5-8-8888-8-8-8--|
-5-5555-5-5-5-5-5555-5-5-5-3-3333-3-3-3-6-6666-6-6-6--|
------------------------------------------------------|

------------------------------------------------------|
------------------------------------------------------|
---****---------****---------****---------****--------|
-7-7777-7-7-7-7-7777-7-7-7-5-5555-5-5-5-8-8888-8-8-8--|
-5-5555-5-5-5-5-5555-5-5-5-3-3333-3-3-3-6-6666-6-6-6--|
------------------------------------------------------|

------------------------------------------------------|
------------------------------------------------------|
---****---------****---------****---------****--------|
-7-7777-7-7-7-7-7777-7-7-7-5-5555-5-5-5-8-8888-8-8-8--|
-5-5555-5-5-5-5-5555-5-5-5-3-3333-3-3-3-6-6666-6-6-6--|
------------------------------------------------------|

------------------------------------------------------|
------------------------------------------------------|
---****---------****---------****---------****--------|
-7-7777-7-7-7-7-7777-7-7-7-5-5555-5-5-5-8-8888-8-8-8--|
-5-5555-5-5-5-5-5555-5-5-5-3-3333-3-3-3-6-6666-6-6-6--|
------------------------------------------------------|


2:23
---------------------------------------------------------------|
---------------------------------------------------------------|
---------------------------------------------------------------|
-*-*---***-*---*---------*-----*-*---***-*---*---------*-------|
-0-0-1-000-0-1-0-4-3-*-1-3-1---0-0-1-000-0-1-0-4-3-*-1-3-1-----|
-0-0-1-000-0-1-0-4-3-0-1-3-1---0-0-1-000-0-1-0-4-3-0-1-3-1-----|

------------------------------------------------|
------------------------------------------------|
------------------------------------------------|
-*-*---***-*---*---------*-----*-*---***-*---*--|
-0-0-1-000-0-1-0-4-3-*-1-3-1---0-0-1-000-0-1-0--|
-0-0-1-000-0-1-0-4-3-0-1-3-1---0-0-1-000-0-1-0--|


2:34
gt1
------------------------------------------------------------------|
------------------------------------------------------------------|
------------------------------------------------------------------|
-777755557777----5555------------77777777888877775555-------------|
-------------8888----777788888888--------------------777788888888-|
------------------------------------------------------------------|
gt2
------------------------------------------------------------------|
------------------------------------------------------------------|
------------------------------------------------------------------|
-333322223333----2222------------33333333555533332222-------------|
-------------5555----333355555555--------------------333355555555-|
------------------------------------------------------------------|


------------------------------------------|
------------------------------------------|
----------------------------------5-3-----|
--------------------------------------5---|
-5-----1-----0------5-----1-----0---------|
-5-----1-----0------5-----1-----0---------|

----------------------------------------------------|
----------------------------------------------------|
----------------------------------------------------|
----------------------------------------------------|
-5-----1-----0------5-------------------------------|
-5-----1-----0------5--12-10-8-10-8-7-10-8-7-8-7-5--|


---------------------------------------------------------------|
---------------------------------------------------------------|
---------------------------------------------------------------|
---------------------------------------------------------------|
-0-------------------------------------------------------------|
-0-------------------------------------------------------------|



3:41
-----------------------------------------------------------------|
-----------------------------------------------------------------|
-----------------------------------------------------------------|
-----------------------------------------------------------------|
*-*-*---*-*-*---*-*-*---*-*-*---*-*-*---*-*-*---*-*-*---*-*-*----|
0-0-0---0-0-0---0-0-0---0-0-0---0-0-0---0-0-0---0-0-0---0-0-0----|

-----------------------------------------------------------------|
-----------------------------------------------------------------|
-----------------------------------------------------------------|
-----------------------------------------------------------------|
*-*-*---*-*-*---*-*-*---*-*-*---*-*-*---*-*-*---*-*-*---*-*-*----|
0-0-0---0-0-0---0-0-0---0-0-0---0-0-0---0-0-0---0-0-0---0-0-0----|


4:11
-----------------------------------------------|
-----------------------------------------------|
---------------------------------------5-3-2---|
--------*-*------------------------------------|
-5----5-4-2-1-----0------5-----1-----0---------|
-5----5-4-2-1-----0------5-----1-----0---------|

-------------------------------------------------|
-------------------------------------------------|
------------------------------------5-3-2--------|
-------------------------------------------------|
-5-----1-----0-------5-----1-----0---------------|
-5-----1-----0-------5-----1-----0---------------|

-------------------------------------------------|
-------------------------------------------------|
------------------------------------5-3-2--------|
-------------------------------------------------|
-5-----1-----0-------5-----1-----0---------------|
-5-----1-----0-------5-----1-----0---------------|

----------------------------------------------------|
----------------------------------------------------|
----------------------------------------------------|
----------------------------------------------------|
-5-----1-----0------5----------------------------*-5|
-5-----1-----0------5--12-10-8-10-8-7-10-8-7-8-7-5-5|



5:09
gt1
-10-------10-------11-------10-----10-------10-------11------10----|
---11-------11-------11-------10-----11-------11-------11------10--|
-----12-------12-------12-------11-----12-------12-------12------11|
-------------------------------------------------------------------|
-------------------------------------------------------------------|
-------------------------------------------------------------------|
gt2
----------------------------------------------------------|
----------------------------------------------------------|
-7------7------8------7------7------7------8------7-------|
---8------8------8------7------8------8------8------7-----|
-----10-----10-----10-----9------10-----10-----10-----9---|
----------------------------------------------------------|

gt1
-10-------10-------11-------10-----10-------10-------11------10----|
---11-------11-------11-------10-----11-------11-------11------10--|
-----12-------12-------12-------11-----12-------12-------12------11|
-------------------------------------------------------------------|
-------------------------------------------------------------------|
-------------------------------------------------------------------|
gt2
----------------------------------------------------------|
----------------------------------------------------------|
-7------7------8------7------7------7------8------7-------|
---8------8------8------7------8------8------8------7-----|
-----10-----10-----10-----9------10-----10-----10-----9---|
----------------------------------------------------------|


---------------------------------------------------------------|
---------------------------------------------------------------|
-12------------------------------------------------------------|
---------------------------------------------------------------|
---------------------------------------------------------------|
---------------------------------------------------------------|


---------------------------------------------------------------|
---------------------------------------------------------------|
---------------------------------------------------------------|
-8-------------------------------------------------------------|
---------------------------------------------------------------|
---------------------------------------------------------------|


Добавлено: 16.09.2013
Другие материалы по этой песне:
  • Аккорды и текст

Страница создана 16.09.2013
http://primanota.ru/eyes-of-noctum/phantasma-nocturna-chords.htm
Привет, Гость.
Предлагаем пройти революционный курс по гитаре.
Подарок от PrimaNota.Ru, забирай!