PrimaNota.ru - самый крупный в мире бесплатный архив песенных текстов, аккордов, табулатур и нот


Eyes Of Noctum - Gods Second Hand - таба, видео

Регистрация Запомнить меня
Войти через:  Facebook Google Twitter Vk Yandex Mail.ru

Eyes Of Noctum - Gods Second Hand - таба, видео

Печатать
Просмотров: 190
Уроки эстрадного вокала в Санкт-Петербурге
EYES OF NOCTUM
GOD'S SECOND HAND

DADGBE

*=PALM MUTE
///= TREMELO PICKED

TABBED BY andherembrace



----------------------------------------------------------|
----------------------------------------------------------|
----------------------------------------------------------|
---------------*-*-8--*-*-8-------------------------------|
-*-*-7--*-*-7--5-6-6--5-6-6--*-*-7--*-*-7--*--*-10--*-*-6-|
-6-7-7--6-7-7----------------6-7-7--6-7-7--9-10-10--5-6-6-|

----------------------------------------------------------|
----------------------------------------------------------|
----------------------------------------------------------|
---------------*-*-8--*-*-8-------------------------------|
-*-*-7--*-*-7--5-6-6--5-6-6--*-*-7--*-*-7--*--*-10--*-*-6-|
-6-7-7--6-7-7----------------6-7-7--6-7-7--9-10-10--5-6-6-|

0:23
---------------------------------------------------------|
---------------------------------------------------------|
-----------*---------------------------------------------|
-*--------///--------*-----------*-------------*---------|
///--------6--------///---------///----------///---------|
-7-------------------7----------10------------6----------|

----------------------------------------------------------|
----------------------------------------------------------|
-----------*----------------------------------------------|
-*--------///--------*-----------*------------*-----------|
///--------6--------///---------///----------///----------|
-7-------------------7----------10------------6-----------|

slower
---------------------------------------------------------|
---------------------------------------------------------|
-----------*---------------------------------------------|
-*--------///--------*-----------*-------------*---------|
///--------6--------///---------///----------///---------|
-7-------------------7----------10------------6----------|

----------------------------------------------------------|
----------------------------------------------------------|
-----------*----------------------------------------------|
-*--------///--------*-----------*------------*-----------|
///--------6--------///---------///----------///----------|
-7-------------------7----------10------------6-----------|


0:44
----------------------------------------------------------|
----------------------------------------------------------|
----------------------------------------------------------|
---------------*-*-8--*-*-8-------------------------------|
-*-*-7--*-*-7--5-6-6--5-6-6--*-*-7--*-*-7--*--*-10--*-*-6-|
-6-7-7--6-7-7----------------6-7-7--6-7-7--9-10-10--5-6-6-|

--------------------------------------------|
--------------------------------------------|
--------------------------------------------|
---------------*-*-8--*-*-8-----------------|
-*-*-7--*-*-7--5-6-6--5-6-6--*-*-7--*-*-7---|
-6-7-7--6-7-7----------------6-7-7--6-7-7---|


0:54
--------------------------------------------------------------------|
--------------------------------------------------------------------|
-9-------9--9--9------------------------------------5------7-9-7-5--|
-10--**--10-10-10-5--**--5-5-5---12--*-*-12-12-12---5--**--5-5-5-5--|
-7---77--7--7--7--3--33--3-3-3---10-1010-10-10-10---5--55--5-5-5-5--|
-7---77--7--7--7\-3--33--3-3-3-/-10-1010-10-10-10-\-5--55--5-5-5-5--|

-------------------------------------------------------------------------|
-------------------------------------------------------------------------|
-9------9--9--9-----------------------------------------5---5---5---5----|
-10-**--10-10-10-5--**--5-5-5----*--*--*--*--*--*--*--*--5-9-5-9-5-9-5-9-|
-7--77--7--7--7--3--33--3-3-3---10-10-10-10-10-10-10-10--5-5-5-5-5-5-5-5-|
-7--77--7--7--7\-3--33--3-3-3-/-10-10-10-10-10-10-10-10\-5-5-5-5-5-5-5-5-|

1:13
---------------------------------------------------------|
---------------------------------------------------------|
-----------*---------------------------------------------|
-*--------///--------*-----------*-------------*---------|
///--------6--------///---------///----------///---------|
-7-------------------7----------10------------6----------|

----------------------------------------------------------|
----------------------------------------------------------|
-----------*----------------------------------------------|
-*--------///--------*-----------*------------*-----------|
///--------6--------///---------///----------///----------|
-7-------------------7----------10------------6-----------|

---------------------------------------------------------|
---------------------------------------------------------|
-----------*---------------------------------------------|
-*--------///--------*-----------*-------------*---------|
///--------6--------///---------///----------///---------|
-7-------------------7----------10------------6----------|

----------------------------------------------------------|
----------------------------------------------------------|
-----------*----------------------------------------------|
-*--------///--------*-----------*------------*-----------|
///--------6--------///---------///----------///----------|
-7-------------------7----------10------------6-----------|


1:34
----------------------------------------------------------|
----------------------------------------------------------|
----------------------------------------------------------|
---------------*-*-8--*-*-8-------------------------------|
-*-*-7--*-*-7--5-6-6--5-6-6--*-*-7--*-*-7--*--*-10--*-*-6-|
-6-7-7--6-7-7----------------6-7-7--6-7-7--9-10-10--5-6-6-|

--------------------------------------------|
--------------------------------------------|
--------------------------------------------|
---------------*-*-8--*-*-8-----------------|
-*-*-7--*-*-7--5-6-6--5-6-6--*-*-7--*-*-7---|
-6-7-7--6-7-7----------------6-7-7--6-7-7---|

1:45
--------------------------------------------------------------------|
--------------------------------------------------------------------|
-9-------9--9--9------------------------------------5------7-9-7-5--|
-10--**--10-10-10-5--**--5-5-5---12--*-*-12-12-12---5--**--5-5-5-5--|
-7---77--7--7--7--3--33--3-3-3---10-1010-10-10-10---5--55--5-5-5-5--|
-7---77--7--7--7\-3--33--3-3-3-/-10-1010-10-10-10-\-5--55--5-5-5-5--|

-------------------------------------------------------------------------|
-------------------------------------------------------------------------|
-9------9--9--9-----------------------------------------5---5---5---5----|
-10-**--10-10-10-5--**--5-5-5----*--*--*--*--*--*--*--*--5-9-5-9-5-9-5-9-|
-7--77--7--7--7--3--33--3-3-3---10-10-10-10-10-10-10-10--5-5-5-5-5-5-5-5-|
-7--77--7--7--7\-3--33--3-3-3-/-10-10-10-10-10-10-10-10\-5-5-5-5-5-5-5-5-|


-7-------7--7--7---------3-3-3---10------10-10-10---5------5-5-5-5--|
-8-------8--8--8---------3-3-3---10------10-10-10---5------5-5-5-5--|
-9-------9--9--9---------5-5-5---12------12-12-12---7------7-7-7-7--|
-10--**--10-10-10-5--**--5-5-5---12--*-*-12-12-12---5--**--5-5-5-5--|
-7---77--7--7--7--3--33--3-3-3---10-1010-10-10-10---5--55--5-5-5-5--|
-7---77--7--7--7\-3--33--3-3-3-/-10-1010-10-10-10-\-5--55--5-5-5-5--|

--------------------------------------------------------------------------|
--------------------------------------------------------------------------|
-9------9--9--9-----------------------------------------5---5---5---5---9-|
-10-**--10-10-10-5--**--5--5----*--*--*--*--*--*--*--*--5-9-5-9-5-9-5-9-10|
-7--77--7--7--7--3--33--3--3---10-10-10-10-10-10-10-10--5-5-5-5-5-5-5-5-7-|
-7--77--7--7--7\-3--33--3--3-/-10-10-10-10-10-10-10-10\-5-5-5-5-5-5-5-5-7-|




3:16
---------------------------------------------------------|
---------------------------------------------------------|
-----------*---------------------------------------------|
-*--------///--------*-----------*-------------*---------|
///--------6--------///---------///----------///---------|
-7-------------------7----------10------------6----------|

----------------------------------------------------------|
----------------------------------------------------------|
-----------*----------------------------------------------|
-*--------///--------*-----------*------------*-----------|
///--------6--------///---------///----------///----------|
-7-------------------7----------10------------6-----------|

3:26
----------------------------------------------------------------------|
----------------------------------------------------------------------|
----------------------------------------------------------------------|
-----------------***-***-***-***--------------------------------------|
-***-***-***-***-666-666-666-666-***-***-***-***--*-*-*--*-*-*-***-***|
-777-777-777-777-----------------777-777-777-777-101010-101010-666-666|

----------------------------------------------------------------------|
----------------------------------------------------------------------|
----------------------------------------------------------------------|
-----------------***-***-***-***--------------------------------------|
-***-***-***-***-666-666-666-666-***-***-***-***--*-*-*--*-*-*-***-***|
-777-777-777-777-----------------777-777-777-777-101010-101010-666-666|

----------------------------------------------------------------------|
----------------------------------------------------------------------|
----------------------------------------------------------------------|
-----------------***-***-***-***--------------------------------------|
-***-***-***-***-666-666-666-666-***-***-***-***--*-*-*--*-*-*-***-***|
-777-777-777-777-----------------777-777-777-777-101010-101010-666-666|

-------------------------------------------------|
-------------------------------------------------|
-------------------------------------------------|
-----------------***-***-***-***-----------------|
-***-***-***-***-666-666-666-666-***-***-***-***-|
-777-777-777-777-----------------777-777-777-777-|


3:48
--------------------------------------------------------------------|
--------------------------------------------------------------------|
-9-------9--9--9------------------------------------5------7-9-7-5--|
-10--**--10-10-10-5--**--5-5-5---12--*-*-12-12-12---5--**--5-5-5-5--|
-7---77--7--7--7--3--33--3-3-3---10-1010-10-10-10---5--55--5-5-5-5--|
-7---77--7--7--7\-3--33--3-3-3-/-10-1010-10-10-10-\-5--55--5-5-5-5--|

-------------------------------------------------------------------------|
-------------------------------------------------------------------------|
-9------9--9--9-----------------------------------------5---5---5---5----|
-10-**--10-10-10-5--**--5--5----*--*--*--*--*--*--*--*--5-9-5-9-5-9-5-9--|
-7--77--7--7--7--3--33--3--3---10-10-10-10-10-10-10-10--5-5-5-5-5-5-5-5--|
-7--77--7--7--7\-3--33--3--3-/-10-10-10-10-10-10-10-10\-5-5-5-5-5-5-5-5--|


4:06
GT1
-7-------7--7--7---------3-3-3---10------10-10-10---5------5-5-5-5--|
-8-------8--8--8---------3-3-3---10------10-10-10---5------5-5-5-5--|
-9-------9--9--9---------5-5-5---12------12-12-12---7------7-7-7-7--|
-10--**--10-10-10-5--**--5-5-5---12--*-*-12-12-12---5--**--5-5-5-5--|
-7---77--7--7--7--3--33--3-3-3---10-1010-10-10-10---5--55--5-5-5-5--|
-7---77--7--7--7\-3--33--3-3-3-/-10-1010-10-10-10-\-5--55--5-5-5-5--|
gt2
---------------------------------------------------------------|
----------------/13--12---/13-------------------------/13--12--|
-14------------------------------------12----------------------|
---------------------------------------------------------------|
---------------------------------------------------------------|
---------------------------------------------------------------|

GT1
-------------------------------------------------------------------------|
-------------------------------------------------------------------------|
-9------9--9--9-----------------------------------------5---5---5---5----|
-10-**--10-10-10-5--**--5--5----*--*--*--*--*--*--*--*--5-9-5-9-5-9-5-9--|
-7--77--7--7--7--3--33--3--3---10-10-10-10-10-10-10-10--5-5-5-5-5-5-5-5--|
-7--77--7--7--7\-3--33--3--3-/-10-10-10-10-10-10-10-10\-5-5-5-5-5-5-5-5--|
GT2
---------------------------------------------------------------|
----------------/13--12---/13-------------------------/13--12--|
-14------------------------------------12----------------------|
---------------------------------------------------------------|
---------------------------------------------------------------|
---------------------------------------------------------------|

GT1
-7-------7--7--7---------3-3-3---10------10-10-10---5------5-5-5-5--|
-8-------8--8--8---------3-3-3---10------10-10-10---5------5-5-5-5--|
-9-------9--9--9---------5-5-5---12------12-12-12---7------7-7-7-7--|
-10--**--10-10-10-5--**--5-5-5---12--*-*-12-12-12---5--**--5-5-5-5--|
-7---77--7--7--7--3--33--3-3-3---10-1010-10-10-10---5--55--5-5-5-5--|
-7---77--7--7--7\-3--33--3-3-3-/-10-1010-10-10-10-\-5--55--5-5-5-5--|
gt2
---------------------------------------------------------------|
----------------/13--12---/13-------------------------/13--12--|
-14------------------------------------12----------------------|
---------------------------------------------------------------|
---------------------------------------------------------------|
---------------------------------------------------------------|

GT1
-7-------7--7--7---------3-3-3-3-3-3--10------10-10-10---5------5-5-5-5|
-8-------8--8--8---------3-3-3-3-3-3--10------10-10-10---5------5-5-5-5|
-9-------9--9--9---------5-5-5-5-5-5--12------12-12-12---7------7-7-7-7|
-10--**--10-10-10-5--**--5-5-5-5-5-5--12--*-*-12-12-12---5--**--5-5-5-5|
-7---77--7--7--7--3--33--3-3-3-3-3-3--10-1010-10-10-10---5--55--5-5-5-5|
-7---77--7--7--7\-3--33--3-3-3-3-3-3/-10-1010-10-10-10-\-5--55--5-5-5-5|
gt2
---------------------------------------------------------------|
----------------/13--12---/13-------------------------/13--12--|
-14------------------------------------12----------------------|
---------------------------------------------------------------|
---------------------------------------------------------------|
---------------------------------------------------------------|


GT1
---------------------------------------------------------------|
---------------------------------------------------------------|
--9------------------------------------------------------------|
--10-----------------------------------------------------------|
--7------------------------------------------------------------|
--7------------------------------------------------------------|
GT2
---------------------------------------------------------------|
---------------------------------------------------------------|
--/14----------------------------------------------------------|
---------------------------------------------------------------|
---------------------------------------------------------------|
---------------------------------------------------------------|
Добавлено: 09.10.2013
Другие материалы по этой песне:
  • Аккорды и текст

Страница создана 09.10.2013
http://primanota.ru/eyes-of-noctum/gods-second-hand-chords.htm
Привет, Гость.
Предлагаем пройти революционный курс по гитаре.
Подарок от PrimaNota.Ru, забирай!